Guns N' Roses - The Godfather Theme (2)

Guns N' Roses - The Godfather Theme (2)

Guns N Roses



Title: The Godfather Theme
Album: 
Artist: Guns N' Roses
Author: 

Track 1: solo guitar
E|---------|------------------8----11---|-10---8----11---8----10---8--------------------|
B|---------|-------------8--------------|--------------------------------------9---11---|
G|-%-------|-%------%-------------------|-------------------------------0--%------------|
D|-%-------|-%------%-------------------|----------------------------------%------------|
A|---------|----------------------------|-----------------------------------------------|
E|---------|----------------------------|-----------------------------------------------|

E|------------------8----11---|-10---8----11---8----10---8--------------------|-----------------------7----|
B|-8-----------8--------------|--------------------------------------8---7----|-6-----------6----9---------|
G|--------0-------------------|-------------------------------0--%------------|--------0-------------------|
D|----------------------------|----------------------------------%------------|----------------------------|
A|----------------------------|-----------------------------------------------|----------------------------|
E|----------------------------|-----------------------------------------------|----------------------------|

E|-10-----10-------------7----|-8---------------------18---|-16---15----15-18--16---16---15---15---7----|
B|-------------6----9---------|-------------13---16--------|--------------------------------------------|
G|----------------------------|--------%-------------------|--------------------------------------------|
D|----------------------------|--------%-------------------|--------------------------------------------|
A|----------------------------|----------------------------|--------------------------------------------|
E|----------------------------|----------------------------|--------------------------------------------|

E|-8------8----8----8----7----|-6------10----8---------|----------------------------|
B|----------------------------|-------------------9----|-8-----------8----11---8----|
G|----------------------------|------------------------|--------%-------------------|
D|----------------------------|------------------------|--------%-------------------|
A|----------------------------|------------------------|----------------------------|
E|----------------------------|------------------------|----------------------------|

E|----------------------------|--------8---------8----11---|-10---8----11---8----10---8--------------------|
B|-6-----------6----9----7----|-8------X----8--------------|--------------------------------------9---11---|
G|----------------------------|--------X-------------------|----------------------------------%------------|
D|----------------------------|--------X-------------------|----------------------------------%------------|
A|----------------------------|----------------------------|-----------------------------------------------|
E|--------0-------------------|----------------------------|-------------------------------0---------------|

E|------------------8----11---|-10---8----11---8----10---8----8---------------|-----------------------7----|
B|-8-----------8--------------|--------------------------------------8---7----|-6-----------6----9---------|
G|--------%-------------------|----------------------------------%------------|--------%-------------------|
D|--------%-------------------|----------------------------------%------------|--------%-------------------|
A|----------------------------|-----------------------------------------------|----------------------------|
E|----------------------------|-----------------------------------------------|----------------------------|

E|-10-----10-------------7----|-8------8----8----11---18---|-16---15---18---16---16---15---15-----15--19---|
B|-------------6----9---------|----------------------------|-----------------------------------------------|
G|----------------------------|----------------------------|----------------------------------%------------|
D|----------------------------|----------------------------|----------------------------------%------------|
A|----------------------------|----------------------------|-----------------------------------------------|
E|----------------------------|----------------------------|-----------------------------------------------|

E|-20-----20----------|---------|---------|---------|---------|---------|---------|
B|--------------------|---------|---------|---------|---------|---------|---------|
G|-------------%------|-%-------|-%-------|-%-------|-%-------|-%-------|-%-------|
D|-------------%------|-%-------|-%-------|-%-------|-%-------|-%-------|-%-------|
A|--------------------|---------|---------|---------|---------|---------|---------|
E|--------------------|---------|---------|---------|---------|---------|---------|

E|---------|-------------8----8----7----|-6------10----8---------|----------------------------|
B|---------|----------------------------|-------------------9----|-8-----------8----11---8----|
G|-%-------|-%------%-------------------|------------------------|----------------------------|
D|-%-------|-%------%-------------------|------------------------|----------------------------|
A|---------|----------------------------|------------------------|----------------------------|
E|---------|----------------------------|------------------------|--------0-------------------|

E|----------------------------|------------------8----11---|-10---8----11---8----10---8--------------------|
B|-6-----------6----9----7----|-8-----------8--------------|--------------------------------------9---11---|
G|--------%-------------------|--------X-------------------|-------------------------------%--%------------|
D|--------%-------------------|----------------------------|-------------------------------%--%------------|
A|----------------------------|----------------------------|-----------------------------------------------|
E|----------------------------|----------------------------|-----------------------------------------------|

E|------------------8----11---|-10---8----11---8----10---8----8---------------|-----------------------7----|
B|-8-----------8--------------|--------------------------------------8---7----|-6-----------6----9---------|
G|--------X-------------------|----------------------------------%------------|--------%-------------------|
D|--------X-------------------|----------------------------------%------------|--------%-------------------|
A|--------X-------------------|-----------------------------------------------|----------------------------|
E|----------------------------|-----------------------------------------------|----------------------------|

E|-10-----10-------------7----|-7-----------8----11---18---|-16---15---18---16---16---15---15---19---|
B|-------------6----9---------|----------------------------|-----------------------------------------|
G|----------------------------|--------%-------------------|-----------------------------------------|
D|----------------------------|--------%-------------------|-----------------------------------------|
A|----------------------------|----------------------------|-----------------------------------------|
E|----------------------------|----------------------------|-----------------------------------------|

E|-19------|---------|
B|---------|---------|
G|---------|-%-------|
D|---------|-%-------|
A|---------|---------|
E|---------|---------|
Guns N' Roses - The Godfather Theme (2)
Guns N' Roses - The Godfather Theme (2).gp3