Guns N' Roses - Think About You

Guns N' Roses - Think About You

Guns N Roses



Title: Think About You
Album: Appetite for Destruction
Artist: Guns N' Roses
Author: W.Axl Rose, Slash, Izzy Stradlin', Duff "Rose" McKagan and Steven Adler

Track 1: Guitar I (Izzy)
E|---------|----------------------------|----------------------------|-----------------------3----|
B|---------|----------------------------|----------------------------|-----------------------3----|
G|-%-------|-%------%----9----%---------|-------------7----%---------|-----------------------0----|
D|-%-------|-%------%----9----%----9----|-9------9----7----%----7----|-7------7--------------0----|
A|---------|-------------7---------9----|-9------9----5---------7----|-7------7--------------X----|
E|---------|-----------------------7----|-7------7--------------5----|-5------5----0----2----3----|

E|-3------3--------------3----|-3--------------------------|----------------------------|
B|-3------3--------------3----|-3--------------------------|----------------------------|
G|-0------0--------------0----|-0------%----9----%---------|-------------7----%---------|
D|-0------0--------------0----|-0------%----9----%----9----|-9------9----7----%----7----|
A|-----------------------X----|-------------7---------9----|-9------9----5---------7----|
E|-3------3----0----2----3----|-3---------------------7----|-7------7--------------5----|

E|----------------------------|-----------------------------------------|----------------------------|
B|----------------------------|-----------------------------------------|----------------------------|
G|----------------------------|-----------------------------------------|-%------%---------%----4----|
D|-7------7----9----7----5----|-5----5--------------5----5---------5----|-%------%----7----%----4----|
A|-7------7----9----7----5----|-5----5----7---------5----5----7----5----|-------------7---------2----|
E|-5------5----7----5----3----|-3----3----3----3----3----3----3----3----|-------------5--------------|

E|-----------------------------------------|-----------------------------------------|
B|-----------------------------------------|-----------------------------------------|
G|-4----4--------------4--------------4----|-4----4--------------4--------------2----|
D|-4----4----6---------4---------6----4----|-4----4----6---------4---------6----2----|
A|-2----2----2----2----2----2----2----2----|-2----2----2----2----2----2----2----0----|
E|-----------------------------------------|-----------------------------------------|

E|-----------------------------------------|-----------------------------------------|
B|-----------------------------------------|-----------------------------------------|
G|-2----2--------------2--------------2----|-2----2--------------2---------3----4----|
D|-2----2----4---------2---------4----2----|-2----2----4---------2---------3----4----|
A|-0----0----0----0----0----0----0----0----|-0----0----0----0----0----0----1----2----|
E|-----------------------------------------|-----------------------------------------|

E|-----------------------------------------|-----------------------------------------|
B|-----------------------------------------|-----------------------------------------|
G|-4----4--------------4--------------4----|-4----4--------------4--------------2----|
D|-4----4----6---------4---------6----4----|-4----4----6---------4---------6----2----|
A|-2----2----2----2----2----2----2----2----|-2----2----2----2----2----2----2----0----|
E|-----------------------------------------|-----------------------------------------|

E|-----------------------------------------|-----------------------3----3----|-3-------|
B|-----------------------------------------|-----------------------3----3----|-3-------|
G|-2----2--------------2--------------2----|-4-----2----4-----2----0----0----|-0-------|
D|-2----2----4---------2---------4----2----|-4-----2----4-----2----0----0----|-0-------|
A|-0----0----0----0----0----0----0----0----|-----------------------X----X----|---------|
E|-----------------------------------------|-----------------------3----3----|-3-------|

E|-3---------------------5----|-5-------|-----------------------3----3----|-3-------|
B|-3---------------------5----|-5-------|-----------------------3----3----|-3-------|
G|-0---------------------2----|-2-------|-4-----2----4-----2----0----0----|-0-------|
D|-0------5--------------2----|-2-------|-4-----2----4-----2----0----0----|-0-------|
A|--------5--------------0----|-0-------|-----------------------X----X----|---------|
E|-3------3----2----3---------|---------|-----------------------3----3----|-3-------|

E|-3------3---------------|-----------------------------------------|---------------------------------|
B|-3------3---------------|-----------------------------------------|---------------------------------|
G|-0------0---------------|-2----2----2----2----2----2----2----2----|-2-----%-----%----9----%---------|
D|-0------0---------------|-2----2----2----2----2----2----2----2----|-2-----%-----%----9----%----9----|
A|------------------------|-0----0----0----0----0----0----0----0----|-0----------------7---------9----|
E|-3------3----2----3-----|-----------------------------------------|----------------------------7----|

E|----------------------------|-----------------------3----|-3------3--------------3----|
B|----------------------------|-----------------------3----|-3------3--------------3----|
G|-------------7----%---------|-----------------------0----|-0------0--------------0----|
D|-9------9----7----%----7----|-7------7--------------0----|-0------0--------------0----|
A|-9------9----5---------7----|-7------7--------------X----|-----------------------X----|
E|-7------7--------------5----|-5------5----0----2----3----|-3------3----0----2----3----|

E|-3--------------------------|----------------------------|----------------------------|
B|-3--------------------------|----------------------------|----------------------------|
G|-0------%----9----%---------|-------------7----%---------|----------------------------|
D|-0------%----9----%----9----|-9------9----7----%----7----|-7------7----9----7----5----|
A|-------------7---------9----|-9------9----5---------7----|-7------7----9----7----5----|
E|-3---------------------7----|-7------7--------------5----|-5------5----7----5----3----|

E|-----------------------------------------|----------------------------|-----------------------------------------|
B|-----------------------------------------|----------------------------|-----------------------------------------|
G|-----------------------------------------|-%------%---------%----4----|-4----4--------------4--------------4----|
D|-5----5--------------5----5---------5----|-%------%----7----%----4----|-4----4----6---------4---------6----4----|
A|-5----5----7---------5----5----7----5----|-------------7---------2----|-2----2----2----2----2----2----2----2----|
E|-3----3----3----3----3----3----3----3----|-------------5--------------|-----------------------------------------|

E|-----------------------------------------|-----------------------------------------|
B|-----------------------------------------|-----------------------------------------|
G|-4----4--------------4--------------2----|-2----2--------------2--------------2----|
D|-4----4----6---------4---------6----2----|-2----2----4---------2---------4----2----|
A|-2----2----2----2----2----2----2----0----|-0----0----0----0----0----0----0----0----|
E|-----------------------------------------|-----------------------------------------|

E|-----------------------------------------|-----------------------------------------|
B|-----------------------------------------|-----------------------------------------|
G|-2----2--------------2---------3----4----|-4----4--------------4--------------4----|
D|-2----2----4---------2---------3----4----|-4----4----6---------4---------6----4----|
A|-0----0----0----0----0----0----1----2----|-2----2----2----2----2----2----2----2----|
E|-----------------------------------------|-----------------------------------------|

E|-----------------------------------------|-----------------------------------------|
B|-----------------------------------------|-----------------------------------------|
G|-4----4--------------4--------------2----|-2----2--------------2--------------2----|
D|-4----4----6---------4---------6----2----|-2----2----4---------2---------4----2----|
A|-2----2----2----2----2----2----2----0----|-0----0----0----0----0----0----0----0----|
E|-----------------------------------------|-----------------------------------------|

E|-----------------------3----3----|-3-------|-3---------------------5----|-5-------|
B|-----------------------3----3----|-3-------|-3---------------------5----|-5-------|
G|-4-----2----4-----2----0----0----|-0-------|-0---------------------2----|-2-------|
D|-4-----2----4-----2----0----0----|-0-------|-0------5--------------2----|-2-------|
A|-----------------------X----X----|---------|--------5--------------0----|-0-------|
E|-----------------------3----3----|-3-------|-3------3----2----3---------|---------|

E|-----------------------3----3----|-3-------|-3------3---------------|-----------------------------------------|
B|-----------------------3----3----|-3-------|-3------3---------------|-----------------------------------------|
G|-4-----2----4-----2----0----0----|-0-------|-0------0---------------|-2----2----2----2----2----2----2----2----|
D|-4-----2----4-----2----0----0----|-0-------|-0------0---------------|-2----2----2----2----2----2----2----2----|
A|-----------------------X----X----|---------|------------------------|-0----0----0----0----0----0----0----0----|
E|-----------------------3----3----|-3-------|-3------3----2----3-----|-----------------------------------------|

E|-----------------------------------------|---------------------------------|----------------------------|
B|-----------------------------------------|---------------------------------|----------------------------|
G|-2----2----2----2----2----2----2----2----|-----------------------%---------|----------------------------|
D|-2----2----2----2----2----2----2----2----|-9------9----9----9----%----9----|-9------9--------------5----|
A|-0----0----0----0----0----0----0----0----|-9------9----9----9---------9----|-9------9--------------5----|
E|-----------------------------------------|-7------7----7----7---------7----|-7------7----7----5----3----|

E|-------------------------|---------------------------------|---------------------------------|
B|-------------------------|---------------------------------|---------------------------------|
G|-------------------------|-----------------------%---------|-----------------------%---------|
D|-5------5----5------5----|-5------5----5----7----%----9----|-9------9----9----9----%----9----|
A|-5------5----5------5----|-5------5----5----7---------9----|-9------9----9----9---------9----|
E|-3------3----3------3----|-3------3----3----5---------7----|-7------7----7----7---------7----|

E|----------------------------|-------------------------|---------------------------------|
B|----------------------------|-------------------------|---------------------------------|
G|----------------------------|-------------------------|-----------------------%---------|
D|-9------9--------------5----|-5------5----5------5----|-5------5----5----7----%----9----|
A|-9------9--------------5----|-5------5----5------5----|-5------5----5----7---------9----|
E|-7------7----7----5----3----|-3------3----3------3----|-3------3----3----5---------7----|

E|---------------------------------|----------------------------|-------------------------|
B|---------------------------------|----------------------------|-------------------------|
G|-----------------------%---------|----------------------------|-------------------------|
D|-9------9----9----9----%----9----|-9------9--------------5----|-5------5----5------5----|
A|-9------9----9----9---------9----|-9------9--------------5----|-5------5----5------5----|
E|-7------7----7----7---------7----|-7------7----7----5----3----|-3------3----3------3----|

E|---------------------------------|---------------------------------|----------------------------|
B|---------------------------------|---------------------------------|----------------------------|
G|-----------------------%---------|-----------------------%---------|----------------------------|
D|-5------5----5----7----%----9----|-9------9----9----9----%----9----|-9------9--------------5----|
A|-5------5----5----7---------9----|-9------9----9----9---------9----|-9------9--------------5----|
E|-3------3----3----5---------7----|-7------7----7----7---------7----|-7------7----7----5----3----|

E|-------------------------|-------------------------|-----------------------------------------|
B|-------------------------|-------------------------|-----------------------------------------|
G|-------------------------|-------------------%-----|-----------------------------------------|
D|-5------5----5------5----|-5------5----5-----%-----|-4----4----4----4----4----4----4----4----|
A|-5------5----5------5----|-5------5----5-----------|-4----4----4----4----4----4----4----4----|
E|-3------3----3------3----|-3------3----3-----------|-2----2----2----2----2----2----2----2----|

E|---------------------|--------------------|--------------------|--------------------|
B|---------------------|--------------------|--------------------|--------------------|
G|---------------------|--------------------|-4------6----6------|-11-----9----9------|
D|-4------4------4-----|-4------6----6------|-4------6----6------|-11-----9----9------|
A|-4------4------4-----|-4------6-----------|-2------4----4------|-9------7----7------|
E|-2------2------2-----|-2------4----4------|--------------------|--------------------|

E|-----------------|-----------------------------------------|-----------------------------------------|
B|-----------------|-----------------------------------------|-----------------------------------------|
G|-7-----7----6----|-6----6----6----6----6----6----6----6----|-6----6----6----6----6----6----6----6----|
D|-7-----7----6----|-6----6----6----6----6----6----6----6----|-6----6----6----6----6----6----6----6----|
A|-5-----5----4----|-4----4----4----4----4----4----4----4----|-4----4----4----4----4----4----4----4----|
E|-----------------|-----------------------------------------|-----------------------------------------|

E|----------------------------------------|----------------------------------------|
B|----------------------------------------|----------------------------------------|
G|-9----11---11---9----11----11---X---X---|-9----11---11---9----11----11---X---X---|
D|-9----11---11---9----11----11---X---X---|-9----11---11---9----11----11---X---X---|
A|-7----9----9----7----9-----9----X---X---|-7----9----9----7----9-----9----X---X---|
E|----------------------------------------|----------------------------------------|

E|----------------------------------------|----------------------------------------|
B|----------------------------------------|----------------------------------------|
G|-4----6----6----4----6-----6----X---X---|-4----6----6----4----6-----6----X---X---|
D|-4----6----6----4----6-----6----X---X---|-4----6----6----4----6-----6----X---X---|
A|-2----4----4----2----4-----4----X---X---|-2----4----4----2----4-----4----X---X---|
E|----------------------------------------|----------------------------------------|

E|----------------------------------------|----------------------------------------|
B|----------------------------------------|----------------------------------------|
G|-9----11---11---9----11----11---X---X---|-9----11---11---9----11----11---X---X---|
D|-9----11---11---9----11----11---X---X---|-9----11---11---9----11----11---X---X---|
A|-7----9----9----7----9-----9----X---X---|-7----9----9----7----9-----9----X---X---|
E|----------------------------------------|----------------------------------------|

E|----------------------------------------|-----------------------------------------|
B|----------------------------------------|-----------------------------------------|
G|-4----6----6----4----6-----6----X---X---|-4----6----6----4----6----7----8----9----|
D|-4----6----6----4----6-----6----X---X---|-4----6----6----4----6----7----8----9----|
A|-2----4----4----2----4-----4----X---X---|-2----4----4----2----4----5----6----7----|
E|----------------------------------------|-----------------------------------------|

E|--------------------------------------------|--------------------------------------------|
B|--------------------------------------------|--------------------------------------------|
G|-9---------9-----------------9----%----7----|-----------7----X---X--------7----%----6----|
D|-9---------9-----------------9----%----7----|-----------7----X---X--------7----%----6----|
A|-7----7----7----7---7---7----7---------5----|-5----5----5----X---X---5----5---------4----|
E|--------------------------------------------|--------------------------------------------|

E|--------------------------------------------|--------------------------------------------|
B|--------------------------------------------|--------------------------------------------|
G|-----------6----X---X--------6----%----6----|-----------6----X---X---6----7----8----9----|
D|-----------6----X---X--------6----%----6----|-----------6----X---X---6----7----8----9----|
A|-4----4----4----X---X---4----4---------4----|-4----4----4----X---X---4----5----6----7----|
E|--------------------------------------------|--------------------------------------------|

E|--------------------------------------------|--------------------------------------------|
B|--------------------------------------------|--------------------------------------------|
G|-9---------9-----------------9----%----7----|-----------7----X---X--------7----%----6----|
D|-9---------9-----------------9----%----7----|-----------7----X---X--------7----%----6----|
A|-7----7----7----7---7---7----7---------5----|-5----5----5----X---X---5----5---------4----|
E|--------------------------------------------|--------------------------------------------|

E|--------------------------------------------|--------------------------------------------|
B|--------------------------------------------|--------------------------------------------|
G|-----------6----X---X--------6----%----6----|-----------6----X---X---6----7----8----9----|
D|-----------6----X---X--------6----%----6----|-----------6----X---X---6----7----8----9----|
A|-4----4----4----X---X---4----4---------4----|-4----4----4----X---X---4----5----6----7----|
E|--------------------------------------------|--------------------------------------------|

E|--------------------------------------------|--------------------------------------------|
B|--------------------------------------------|--------------------------------------------|
G|-9---------9-----------------9----%----7----|-----------7----X---X--------7----%----6----|
D|-9---------9-----------------9----%----7----|-----------7----X---X--------7----%----6----|
A|-7----7----7----7---7---7----7---------5----|-5----5----5----X---X---5----5---------4----|
E|--------------------------------------------|--------------------------------------------|

E|--------------------------------------------|--------------------------------------------|
B|--------------------------------------------|--------------------------------------------|
G|-----------6----X---X--------6----%----6----|-----------6----X---X---6----7----8----9----|
D|-----------6----X---X--------6----%----6----|-----------6----X---X---6----7----8----9----|
A|-4----4----4----X---X---4----4---------4----|-4----4----4----X---X---4----5----6----7----|
E|--------------------------------------------|--------------------------------------------|

E|--------------------------------------------|--------------------------------------------|
B|--------------------------------------------|--------------------------------------------|
G|-9---------9-----------------9----%----7----|-----------7----X---X--------7----%----6----|
D|-9---------9-----------------9----%----7----|-----------7----X---X--------7----%----6----|
A|-7----7----7----7---7---7----7---------5----|-5----5----5----X---X---5----5---------4----|
E|--------------------------------------------|--------------------------------------------|

E|-----------------------------------------|-----------------------------|-----------------------------------------|
B|-6----6----6----6----6----6----6----6----|-6---------------------------|-----------------------------------------|
G|-6----6----6----6----6----6----6----6----|-6-----%-----------%----4----|-4----4--------------4--------------4----|
D|-6----6----6----6----6----6----6----6----|-6-----%------7----%----4----|-4----4----6---------4---------6----4----|
A|-4----4----4----4----4----4----4----4----|-4------------7---------2----|-2----2----2----2----2----2----2----2----|
E|-----------------------------------------|--------------5--------------|-----------------------------------------|

E|-----------------------------------------|-----------------------------------------|
B|-----------------------------------------|-----------------------------------------|
G|-4----4--------------4--------------2----|-2----2--------------2--------------2----|
D|-4----4----6---------4---------6----2----|-2----2----4---------2---------4----2----|
A|-2----2----2----2----2----2----2----0----|-0----0----0----0----0----0----0----0----|
E|-----------------------------------------|-----------------------------------------|

E|-----------------------------------------|-----------------------------------------|
B|-----------------------------------------|-----------------------------------------|
G|-2----2--------------2---------3----4----|-4----4--------------4--------------4----|
D|-2----2----4---------2---------3----4----|-4----4----6---------4---------6----4----|
A|-0----0----0----0----0----0----1----2----|-2----2----2----2----2----2----2----2----|
E|-----------------------------------------|-----------------------------------------|

E|-----------------------------------------|-----------------------------------------|
B|-----------------------------------------|-----------------------------------------|
G|-4----4--------------4--------------2----|-2----2--------------2--------------2----|
D|-4----4----6---------4---------6----2----|-2----2----4---------2---------4----2----|
A|-2----2----2----2----2----2----2----0----|-0----0----0----0----0----0----0----0----|
E|-----------------------------------------|-----------------------------------------|

E|-----------------------3----3----|-3-------|-3---------------------5----|-5-------|
B|-----------------------3----3----|-3-------|-3---------------------5----|-5-------|
G|-4-----2----4-----2----0----0----|-0-------|-0---------------------2----|-2-------|
D|-4-----2----4-----2----0----0----|-0-------|-0------5--------------2----|-2-------|
A|-----------------------X----X----|---------|--------5--------------0----|-0-------|
E|-----------------------3----3----|-3-------|-3------3----2----3---------|---------|

E|-----------------------3----3----|-3-------|-3------3---------------|-----------------------------------------|
B|-----------------------3----3----|-3-------|-3------3---------------|-----------------------------------------|
G|-4-----2----4-----2----0----0----|-0-------|-0------0---------------|-2----2----2----2----2----2----2----2----|
D|-4-----2----4-----2----0----0----|-0-------|-0------0---------------|-2----2----2----2----2----2----2----2----|
A|-----------------------X----X----|---------|------------------------|-0----0----0----0----0----0----0----0----|
E|-----------------------3----3----|-3-------|-3------3----2----3-----|-----------------------------------------|

E|-----------------------------------------|---------------------------------|----------------------------|
B|-----------------------------------------|---------------------------------|----------------------------|
G|-2----2----2----2----2----2----2----2----|-----------------------%---------|----------------------------|
D|-2----2----2----2----2----2----2----2----|-9------9----9----9----%----9----|-9------9--------------5----|
A|-0----0----0----0----0----0----0----0----|-9------9----9----9---------9----|-9------9--------------5----|
E|-----------------------------------------|-7------7----7----7---------7----|-7------7----7----5----3----|

E|-------------------------|---------------------------------|---------------------------------|
B|-------------------------|---------------------------------|---------------------------------|
G|-------------------------|-----------------------%---------|-----------------------%---------|
D|-5------5----5------5----|-5------5----5----7----%----9----|-9------9----9----9----%----9----|
A|-5------5----5------5----|-5------5----5----7---------9----|-9------9----9----9---------9----|
E|-3------3----3------3----|-3------3----3----5---------7----|-7------7----7----7---------7----|

E|----------------------------|-------------------------|---------------------------------|
B|----------------------------|-------------------------|---------------------------------|
G|----------------------------|-------------------------|-----------------------%---------|
D|-9------9--------------5----|-5------5----5------5----|-5------5----5----7----%----9----|
A|-9------9--------------5----|-5------5----5------5----|-5------5----5----7---------9----|
E|-7------7----7----5----3----|-3------3----3------3----|-3------3----3----5---------7----|

E|---------------------------------|----------------------------|-------------------------|
B|---------------------------------|----------------------------|-------------------------|
G|-----------------------%---------|----------------------------|-------------------------|
D|-9------9----9----9----%----9----|-9------9--------------5----|-5------5----5------5----|
A|-9------9----9----9---------9----|-9------9--------------5----|-5------5----5------5----|
E|-7------7----7----7---------7----|-7------7----7----5----3----|-3------3----3------3----|

E|---------------------------------|---------------------------------|----------------------------|
B|---------------------------------|---------------------------------|----------------------------|
G|-----------------------%---------|-----------------------%---------|----------------------------|
D|-5------5----5----7----%----9----|-9------9----9----9----%----9----|-9------9--------------5----|
A|-5------5----5----7---------9----|-9------9----9----9---------9----|-9------9--------------5----|
E|-3------3----3----5---------7----|-7------7----7----7---------7----|-7------7----7----5----3----|

E|-------------------------|-------------------------|-------------------------|-------------------------|
B|-------------------------|-------------------------|-------------------------|-------------------------|
G|-------------------------|-------------------%-----|-4------4----4------4----|-4------4-----2-----2----|
D|-5------5----5------5----|-5------5----5-----%-----|-4------4----4------4----|-4------4-----2-----2----|
A|-5------5----5------5----|-5------5----5-----------|-2------2----2------2----|-2------2-----0-----0----|
E|-3------3----3------3----|-3------3----3-----------|-------------------------|-------------------------|

E|-------------------------|-------------------------|-------------------------|---------------------------------|
B|-------------------------|-------------------------|-------------------------|---------------------------------|
G|-4------4----4------4----|-4------4-----2-----2----|-4------4----4------4----|-4------2----4----2----4----2----|
D|-4------4----4------4----|-4------4-----2-----2----|-4------4----4------4----|-4------2----4----2----4----2----|
A|-2------2----2------2----|-2------2-----0-----0----|-2------2----2------2----|-2------0----2----0----2----0----|
E|-------------------------|-------------------------|-------------------------|---------------------------------|

E|-3-------|-------------------------|-------------------------|-------------------------|
B|-3-------|-------------------------|-------------------------|-------------------------|
G|-0-------|-2------7-----4----2-----|-4------4----4------4----|-4------4-----2----2-----|
D|-0-------|-2------7-----4----2-----|-4------4----4------4----|-4------4-----2----2-----|
A|-X-------|-0------5-----2----0-----|-2------2----2------2----|-2------2-----0----0-----|
E|-3-------|-------------------------|-------------------------|-------------------------|

E|-------------------------|-------------------------|-------------------------|-------------------------|
B|-------------------------|-------------------------|-------------------------|-------------------------|
G|-4------4----4------4----|-4------4-----2----2-----|-4------4----4------4----|-4------4----4-----2-----|
D|-4------4----4------4----|-4------4-----2----2-----|-4------4----4------4----|-4------4----4-----2-----|
A|-2------2----2------2----|-2------2-----0----0-----|-2------2----2------2----|-2------2----2-----0-----|
E|-------------------------|-------------------------|-------------------------|-------------------------|

E|-3-------|-3-------|---------|---------|---------|---------|---------|---------|---------|
B|-3-------|-3-------|---------|---------|---------|---------|---------|---------|---------|
G|-0-------|-0-------|---------|---------|-4-------|-6-------|-7-------|-6-------|-%-------|
D|-0-------|-0-------|-7-------|-7-------|-4-------|-6-------|-7-------|-6-------|-%-------|
A|-X-------|---------|-7-------|-7-------|-2-------|-4-------|-5-------|-4-------|---------|
E|-3-------|-3-------|-5-------|-5-------|---------|---------|---------|---------|---------|

E|---------|---------|---------|
B|---------|---------|---------|
G|-4-------|-4-------|-4-------|
D|-4-------|-4-------|-4-------|
A|-2-------|-2-------|-2-------|
E|---------|---------|---------|
Guns N' Roses - Think About You
Guns N' Roses - Think About You.gp3