Guns N' Roses - Welcome To The Jungle (Live Version)

Guns N' Roses - Welcome To The Jungle (Live Version)

Guns N Roses



Title: Welcome To The Jungle (Live Version)
Album: Live Era
Artist: Guns N' Roses
Author: W. Axl Rose, Slash, Izzy Stradlin', Duff McKagan and Steve Adler

Track 1: Guitar 1(Dist)
D#|---------|-----------------------------------------------------------------|-----------------------------------------------------------------|
A#|---------|-----0-----------0-----------0-----------0-----------0-------0---|-----0-----------0-----------0-----------0-----------0-------0---|
F#|-%-------|-4-------4---2-------2-------------------------------------------|-4-------4---2-------2-------------------------------------------|
C#|-%-------|-------------------------4-------4---2-------2---0---------------|-------------------------4-------4---2-------2---0---------------|
G#|---------|---------------------------------------------------------2-------|---------------------------------------------------------0-------|
D#|---------|-----------------------------------------------------------------|-----------------------------------------------------------------|

D#|-----------------------------------------------------------------|-----------------------------------------------------------------|
A#|-----0-----------0-----------0-----------0-----------0-------0---|-----0-----------0-----------0-----------0-----------0-------0---|
F#|-4-------4---2-------2-------------------------------------------|-4-------4---2-------2-------------------------------------------|
C#|-------------------------4-------4---2-------2---0---------------|-------------------------4-------4---2-------2---0---------------|
G#|---------------------------------------------------------2-------|---------------------------------------------------------0-------|
D#|-----------------------------------------------------------------|-----------------------------------------------------------------|

D#|-----------------------------------------------------------------|-----------------------------------------------------------------|
A#|-----0-----------0-----------0-----------0-----------0-------0---|-----0-----------0-----------0-----------0-----------0-------0---|
F#|-4-------4---2-------2-------------------------------------------|-4-------4---2-------2-------------------------------------------|
C#|-------------------------4-------4---2-------2---0---------------|-------------------------4-------4---2-------2---0---------------|
G#|---------------------------------------------------------2-------|---------------------------------------------------------0-------|
D#|-----------------------------------------------------------------|-----------------------------------------------------------------|

D#|-----------------------------------------------------------------|-----------------------------------------------------------------|
A#|-----0-----------0-----------0-----------0-----------0-------0---|-----0-----------0-----------0-----------0-----------0-------0---|
F#|-4-------4---2-------2-------------------------------------------|-4-------4---2-------2-------------------------------------------|
C#|-------------------------4-------4---2-------2---0---------------|-------------------------4-------4---2-------2---0---------------|
G#|---------------------------------------------------------0-------|---------------------------------------------------------2-------|
D#|-----------------------------------------------------------------|-----------------------------------------------------------------|

D#|-----------------------------------------------------------------|---------------|
A#|-----0-----------0-----------0-----------0-----------0-------0---|-3-------------|
F#|-4-------4---2-------2-------------------------------------------|-2------2------|
C#|-------------------------4-------4---2-------2---0---------------|-0------2------|
G#|---------------------------------------------------------0-------|-0------0------|
D#|-----------------------------------------------------------------|---------------|

D#|-----------------------------------------|----------------------------------------|
A#|-----------------------------------------|----------------------------------------|
F#|-4----4----4----4----4----4----4----4----|-4----4----4----4----4----X---X---X-----|
C#|-4----4----4----4----4----4----4----4----|-4----4----4----4----4----X---X---X-----|
G#|-2----2----2----2----2----2----2----2----|-2----2----2----2----2----X---X---X-----|
D#|-----------------------------------------|----------------------------------------|

D#|-------------------------------------------|-------------------------------------------|
A#|-------------------------------------------|-------------------------------------------|
F#|-------------------------------------------|-------------------------------------------|
C#|-------------------------------------------|-------------------------------------------|
G#|-7-----5----X---7---7---X---5----4---------|-7-----5----X---7---7---X---5----4---------|
D#|-5-----3----X---5---5---X---3----2----0----|-5-----3----X---5---5---X---3----2----0----|

D#|-------------------------------------------|--------------------------------------------------------------|
A#|-------------------------------------------|--------------------------------------------------------------|
F#|-------------------------------------------|-7---7---5-------7---5----------------------------------------|
C#|-------------------------------------------|-------------7-----------7---5--------------------------------|
G#|-7-----5----X---7---7---X---5----4---------|---------------------------------7---6---5---3---3------------|
D#|-5-----3----X---5---5---X---3----2----0----|------------------------------------------------------5---3---|

D#|----------------------------------------------|----------------------------------------------|
A#|----------------------------------------------|----------------------------------------------|
F#|----------------------------------------------|----------------------------------------------|
C#|----------------------------------------------|----------------------------------------------|
G#|----------------------------------------------|----------------------------------------------|
D#|-5-----3----3---5---5---5---3----2----0---0---|-5-----3----3---5---5---5---3----2----0---0---|

D#|----------------------------------------------|----------------------------------------------|
A#|----------------------------------------------|----------------------------------------------|
F#|----------------------------------------------|----------------------------------------------|
C#|----------------------------------------------|----------------------------------------------|
G#|----------------------------------------------|----------------------------------------------|
D#|-5-----3----3---5---5---5---3----2----0---0---|-5-----3----3---5---5---5---3----2----0---0---|

D#|-------------------------------------------|-------------------------------------------|
A#|-------------------------------------------|-------------------------------------------|
F#|-------------------------------------------|-------------------------------------------|
C#|-9-----7----X---9---9---X---7----6----4----|-9-----7----X---9---9---X---7----6----4----|
G#|-7-----5----X---7---7---X---5----4----2----|-7-----5----X---7---7---X---5----4----2----|
D#|-------------------------------------------|-------------------------------------------|

D#|-------------------------------------------|-------------------------------------------|
A#|-------------------------------------------|-------------------------------------------|
F#|-------------------------------------------|-------------------------------------------|
C#|-9-----7----X---9---9---X---7----6----4----|-9-----7----X---9---9---X---7----6---------|
G#|-7-----5----X---7---7---X---5----4----2----|-7-----5----X---7---7---X---5----4----0----|
D#|-------------------------------------------|-------------------------------------------|

D#|---------------|---------|-----------------------------------------------|-----------------------------------------------|
A#|---------------|---------|-----------------------------------------------|-----------------------------------------------|
F#|-5-------------|-7-------|-----------------------------------------------|-----------------------------------------------|
C#|-5-------5-----|-7-------|-----------------------------------------------|-----------------------------------------------|
G#|-3-------5-----|-5-------|-7----7----5----X------------------------------|-7----7----5----X------------------------------|
D#|---------3-----|---------|--------------------6---6---6---5----3----0----|--------------------6---6---6---5----3----0----|

D#|-----------------------------------------------|-----------------------------------------|
A#|-----------------------------------------------|-----------------------------------------|
F#|-----------------------------------------------|-----------------------------------------|
C#|-----------------------------------------------|-----------------------------------------|
G#|-7----7----5----X------------------------------|-7-----5---5-----------------------------|
D#|--------------------6---6---6---5----3----0----|----------------6----6----5----3----4----|

D#|----------------------------------------------|--------------------------------------------------|
A#|----------------------------------------------|---------------------5---7---7----7---5-----------|
F#|----------------------------------------------|-------7---7----5----5---7---7----7---5-----------|
C#|----------------------------------------------|-------7---7----5-------------------------7---5---|
G#|----------------------------------------------|-7------------------------------------------------|
D#|-5-----3----3---5---5---5---3----2----0---0---|--------------------------------------------------|

D#|----------------------------------------------|-----------------------------------------------------|
A#|----------------------------------------------|-------------------------------------------7---------|
F#|----------------------------------------------|-------------------------------------------7----%----|
C#|----------------------------------------------|------5---7---7---5------------------------7----%----|
G#|----------------------------------------------|-7--------------------7---6---7----6---5-------------|
D#|-5-----3----3---5---5---5---3----2----0---0---|-----------------------------------------------------|

D#|-------------------------------------------|-------------------------------------------|
A#|-------------------------------------------|-------------------------------------------|
F#|-------------------------------------------|-------------------------------------------|
C#|-9-----7----X---9---9---X---7----6----4----|-9-----7----X---9---9---X---7----6----4----|
G#|-7-----5----X---7---7---X---5----4----2----|-7-----5----X---7---7---X---5----4----2----|
D#|-------------------------------------------|-------------------------------------------|

D#|-------------------------------------------|-------------------------------------------|
A#|-------------------------------------------|-------------------------------------------|
F#|-------------------------------------------|-------------------------------------------|
C#|-9-----7----X---9---9---X---7----6----4----|-9-----7----X---9---9---X---7----6---------|
G#|-7-----5----X---7---7---X---5----4----2----|-7-----5----X---7---7---X---5----4----0----|
D#|-------------------------------------------|-------------------------------------------|

D#|---------------|---------|-----------------------------------------------|-----------------------------------------------|
A#|---------------|---------|-----------------------------------------------|-----------------------------------------------|
F#|-5-------------|-7-------|-----------------------------------------------|-----------------------------------------------|
C#|-5-------5-----|-7-------|-----------------------------------------------|-----------------------------------------------|
G#|-3-------5-----|-5-------|-7----7----5----X------------------------------|-7----7----5----X------------------------------|
D#|---------3-----|---------|--------------------6---6---6---5----3----0----|--------------------6---6---6---5----3----0----|

D#|-----------------------------------------------|---------------------------------|
A#|-----------------------------------------------|---------------------------------|
F#|-----------------------------------------------|-4-----4---4----4----4-----------|
C#|-----------------------------------------------|-4-----4---4----4----4-----------|
G#|-7----7----5----X------------------------------|-2-----2---2----2----2-----2-----|
D#|--------------------6---6---6---5----3----0----|---------------------------------|

D#|-----------------------------------------|---------------------------------|-----------------------------------------|
A#|------14---15----------------------------|--------------------------12-----|------12------------------15--------15---|
F#|------12---13-------------13--------13---|-13---12---13-------------12-----|------12---13-------------13---%----13---|
C#|------11---12-------------14--------14---|-14------------------------------|-------------------------------%---------|
G#|-----------------------------------------|---------------------------------|-----------------------------------------|
D#|-0--------------0----0---------0---------|----------------0----0-----------|-0--------------0----0-------------------|

D#|--------------------------15---15----|-----------19---19----19----19---18---|-17---17----15--16------------12-------|
A#|-15-----------------------15---15----|------17------------------------------|--------------------15----15-------15--|
F#|-13---15---16------------------------|-19-----------------------------------|---------------------------------------|
C#|-------------------------------------|--------------------------------------|---------------------------------------|
G#|-------------------------------------|--------------------------------------|---------------------------------------|
D#|----------------0----0---------------|--------------------------------------|---------------------------------------|

D#|------------------------------------------------------------|--------------------------------------------------|
A#|-12---------------------------------------------------------|--------------------------------------------------|
F#|------15---14--15--14--12--14--12--------------%------------|---------7---9---9---8---7----7-------------------|
C#|-----------------------------------14--12------%----7---7---|-7---5--------------------------------------------|
G#|-------------------------------------------14---------------|--------------------------------------------------|
D#|------------------------------------------------------------|-----------------------------------14---7----0----|

D#|----------------------------------------------|--------------------------------------------------------|
A#|----------------------------------------------|--------------------------------------------------------|
F#|----------------------------------------------|--------------------------------------------------------|
C#|----------------------------------------------|---------------------------------5----7----5---6---7----|
G#|--------------------------------------3---3---|-5---3---5---3---6---3---6---7--------------------------|
D#|-5-----3----3---5---5---5---3----2------------|--------------------------------------------------------|

D#|----------------------------------------------|------------------8---7---5--------------------------------------------------------|
A#|----------------------------------------------|------8---7---5---------------8---7---5---8---7---5--------------------------------|
F#|--------------------------------------X---5---|-5----------------------------------------------------8---7---5---8---7---5--------|
C#|----------------------------------------------|------------------------------------------------------------------------------7----|
G#|----------------------------------------------|-----------------------------------------------------------------------------------|
D#|-5-----3----3---5---5---5---3----2------------|-----------------------------------------------------------------------------------|

D#|-------------------------------------------|-------------------------------------------|
A#|-------------------------------------------|-------------------------------------------|
F#|-------------------------------------------|-------------------------------------------|
C#|-9-----7----X---9---9---X---7----6----4----|-9-----7----X---9---9---X---7----6----4----|
G#|-7-----5----X---7---7---X---5----4----2----|-7-----5----X---7---7---X---5----4----2----|
D#|-------------------------------------------|-------------------------------------------|

D#|-------------------------------------------|-------------------------------------------|
A#|-------------------------------------------|-------------------------------------------|
F#|-------------------------------------------|-------------------------------------------|
C#|-9-----7----X---9---9---X---7----6----4----|-9-----7----X---9---9---X---7----6---------|
G#|-7-----5----X---7---7---X---5----4----2----|-7-----5----X---7---7---X---5----4----0----|
D#|-------------------------------------------|-------------------------------------------|

D#|---------------|---------|-----------------------------------------------|-----------------------------------------------|
A#|---------------|---------|-----------------------------------------------|-----------------------------------------------|
F#|-5-------------|-7-------|-----------------------------------------------|-----------------------------------------------|
C#|-5-------5-----|-7-------|-----------------------------------------------|-----------------------------------------------|
G#|-3-------5-----|-5-------|-7----7----5----X------------------------------|-7----7----5----X------------------------------|
D#|---------3-----|---------|--------------------6---6---6---5----3----0----|--------------------6---6---6---5----3----0----|

D#|-----------------------------------------------|-----------------------------------------|
A#|-----------------------------------------------|-----------------------------------------|
F#|-----------------------------------------------|-----------------------------------------|
C#|-----------------------------------------------|-----------------------------------------|
G#|-7----7----5----X------------------------------|-7-----5---5-----------------------------|
D#|--------------------6---6---6---5----3----0----|----------------6----6----5----3----4----|

D#|---------|---------|---------|---------|---------|---------|---------|---------------------------------------|
A#|---------|---------|---------|---------|---------|---------|---------|---------------------------------------|
F#|-%-------|-%-------|-%-------|-%-------|-%-------|-%-------|-%-------|---------------------------------------|
C#|-%-------|-%-------|-%-------|-%-------|-%-------|-%-------|-%-------|-5------------5------------5-----3-----|
G#|---------|---------|---------|---------|---------|---------|---------|-5------------5------------5-----3-----|
D#|---------|---------|---------|---------|---------|---------|---------|-3----3---3---3----3---3---3-----1-----|

D#|---------------------------------------|---------------------------------------|
A#|---------------------------------------|---------------------------------------|
F#|---------------------------------------|---------------------------------------|
C#|-5------------5------------5-----3-----|-5------------5------------5-----3-----|
G#|-5------------5------------5-----3-----|-5------------5------------5-----3-----|
D#|-3----3---3---3----3---3---3-----1-----|-3----3---3---3----3---3---3-----1-----|

D#|-----------------------------------------|----------------------13---------|-12---12----------------------------|
A#|------------------------------------0----|-15----15---15---15--------15----|-15---15----15---15----15--15-------|
F#|-----------------------------------------|---------------------------------|-------------------------------0----|
C#|-7----7----7----7----7----7----7---------|---------------------------------|------------------------------------|
G#|-7----7----7----7----7----7----7---------|---------------------------------|------------------------------------|
D#|-5----5----5----5----5----5----5---------|---------------------------------|------------------------------------|

D#|-------12---12--------15-------------|-------15------------------------|---------------------------------|
A#|-------12---12---15---15-------------|-15---------15---15--------------|---------------------------------|
F#|-14-------------------14---14---12---|---------------------------------|---------------------------------|
C#|-------------------------------------|---------------------------------|---------------------------------|
G#|-------------------------------------|---------------------------------|-------------7---------9----9----|
D#|-------------------------------------|----------------------0----X-----|-7----9-----------9--------------|

D#|-------------------------------------|----------------------------|------------------------------------|
A#|-------------------------------------|----------------------------|-------------------------------12---|
F#|-------------------------------------|--------9---------11---11---|-11----11---11---11--11--9-----11---|
C#|----------------------9----9----11---|-11----------11-------------|------------------------------------|
G#|-9-----9----7----11------------------|----------------------------|------------------------------------|
D#|-------------------------------------|----------------------------|------------------------------------|

D#|-------------------------------|-----------------------0----|-0----0----0-----0-----0-----|
A#|-12----------------------------|-------------5---------5----|-5----5----3-----2-----0-----|
F#|-11-----11---11--9-------------|--------6---------6---------|-----------------------------|
C#|---------------------11---9----|-9--------------------------|-----------------------------|
G#|-------------------------------|----------------------------|-----------------------------|
D#|-------------------------------|----------------------------|-----------------------------|

D#|----------------------------------------|-------------------------------------|--------------------------------------------|
A#|-2-----0---2----------------------------|------0----0----------0---------0----|----------------------------------0----15---|
F#|-2-----0---2----0---1---1-----2----4----|-4----4----2-----1-------------------|-----------------------------2--------------|
C#|----------------------------------------|---------------------------4---------|-2-----0---2----0---1---1-------------------|
G#|----------------------------------------|-------------------------------------|--------------------------------------------|
D#|----------------------------------------|-------------------------------------|--------------------------------------------|

D#|-----------------------------|-------------------------9---7---7---------------|
A#|-15----15---15---10----10----|-10--10--8---------------------------------------|
F#|-----------------------------|-------------9---7---9---9---7---7-----0----6----|
C#|-----------------------------|-------------------------------------------------|
G#|-----------------------------|-------------------------------------------------|
D#|-----------------------------|-------------------------------------------------|

D#|-----------------------------------------|-------------------------------------|
A#|-----------------------------------------|-------------------------------------|
F#|-6----6----4-----------------------------|-------------------------------------|
C#|----------------6----6----6----4---------|-------------------------------------|
G#|------------------------------------4----|-4----4----2-------------------------|
D#|-----------------------------------------|----------------4----4----4----0-----|

D#|-----------------------------------------|-----------------------------------------|
A#|-----------------------------------------|-----------------------------------------|
F#|-----------------------------------------|-----------------------------------------|
C#|-4----4----4----4----4----4----4----4----|-4----4----4----4----4----4----4----X----|
G#|-4----4----4----4----4----4----4----4----|-4----4----4----4----4----4----4----X----|
D#|-2----2----2----2----2----2----2----2----|-2----2----2----2----2----2----2----X----|

D#|-4-------|------------------------|-------------------|--------------------|---------|
A#|-4-------|-4------4----4----------|-------------------|--------------------|---------|
F#|---------|------------------------|-4-------4-----12--|-12-----12----12----|-12------|
C#|---------|------------------------|-X-----------------|--------------------|---------|
G#|---------|------------------------|-2-------2---------|--------------------|---------|
D#|---------|-------------------0----|-------------------|--------------------|---------|

D#|---------|-----------------------------------------------------------------|-----------------------------------------------------------------|
A#|---------|-----------------------------------------------------------------|-----------------------------------------------------------------|
F#|-12------|-----------------------------------------------------------------|-----------------------------------------------------------------|
C#|---------|-----------------------------------------------------------------|-----------------------------------------------------------------|
G#|---------|-7---7---7---7---6---6---6---5---5---5---4---4---3---3---2---2---|-7---7---7---7---6---6---6---5---5---5---4---4---3---3---2---2---|
D#|---------|-----------------------------------------------------------------|-----------------------------------------------------------------|

D#|-----------------------------------------------------------------|-----------------------------------------------------------------|
A#|-----------------------------------------------------------------|-----------------------------------------------------------------|
F#|-----------------------------------------------------------------|-----------------------------------------------------------------|
C#|-5---5---5---5---4---4---4---3---3---3---2---2---1---1---0---0---|-5---5---5---5---4---4---4---3---3---3---2---2---1---1---0---0---|
G#|-----------------------------------------------------------------|-----------------------------------------------------------------|
D#|-----------------------------------------------------------------|-----------------------------------------------------------------|

D#|-----------------------------------------------------------------|-----------------------------------------------------------------|
A#|-----------------------------------------------------------------|-----------------------------------------------------------------|
F#|-----------------------------------------------------------------|-----------------------------------------------------------------|
C#|-6---6---6---6---5---5---5---4---4---4---3---3---2---2---1---1---|-6---6---6---6---5---5---5---4---4---4---3---3---2---2---1---1---|
G#|-----------------------------------------------------------------|-----------------------------------------------------------------|
D#|-----------------------------------------------------------------|-----------------------------------------------------------------|

D#|-4----5----6----7----8----9----10---11---|-12---13---14---15---16----16----|-------------------------|
A#|-3----4----5----6----7----8----9----11---|-11---12---13---14---15----15----|-------------------------|
F#|-----------------------------------------|---------------------------------|-------------------------|
C#|-----------------------------------------|---------------------------------|-4-----3-----4-----5-----|
G#|-----------------------------------------|---------------------------------|-4-----3-----4-----5-----|
D#|-----------------------------------------|---------------------------------|-2-----1-----2-----3-----|

D#|-------------------------|---------------|---------|-----------------------------------------------|
A#|-------------------------|---------------|---------|-----------------------------------------------|
F#|-------------------------|-5-------------|-7-------|-----------------------------------------------|
C#|-7-----6-----7-----8-----|-5-------5-----|-7-------|-----------------------------------------------|
G#|-7-----6-----7-----8-----|-3-------5-----|-5-------|-7----7----5----X------------------------------|
D#|-5-----4-----5-----6-----|---------3-----|---------|--------------------6---6---6---5----3----0----|

D#|-----------------------------------------------|---------------|---------|-----------------------------------------------|
A#|-----------------------------------------------|---------------|---------|-----------------------------------------------|
F#|-----------------------------------------------|-5-------------|-7-------|-----------------------------------------------|
C#|-----------------------------------------------|-5-------5-----|-7-------|-----------------------------------------------|
G#|-7----7----5----X------------------------------|-3-------5-----|-5-------|-7----7----5----X------------------------------|
D#|--------------------6---6---6---5----3----0----|---------3-----|---------|--------------------6---6---6---5----3----0----|

D#|-----------------------------------------------|---------------|---------|-----------------------------------------------|
A#|-----------------------------------------------|---------------|---------|-----------------------------------------------|
F#|-----------------------------------------------|-5-------------|-7-------|-----------------------------------------------|
C#|-----------------------------------------------|-5-------5-----|-7-------|-----------------------------------------------|
G#|-7----7----5----X------------------------------|-3-------5-----|-5-------|-7----7----5----X------------------------------|
D#|--------------------6---6---6---5----3----0----|---------3-----|---------|--------------------6---6---6---5----3----0----|

D#|-----------------------------------------------|---------------|---------|-----------------------------------------|
A#|-----------------------------------------------|---------------|---------|-----------------------------------------|
F#|-----------------------------------------------|-5-------------|-7-------|-----------------------------------------|
C#|-----------------------------------------------|-5-------5-----|-7-------|-----------------------------------------|
G#|-7----7----5----X------------------------------|-3-------5-----|-5-------|-7-----5---5-----------------------------|
D#|--------------------6---6---6---5----3----0----|---------3-----|---------|----------------6----6---5-----3----0----|

D#|----------------0--------------------|---------|--------------------|-----------------------------------------|
A#|---------------------0---------12----|-12------|-12-----12----------|---------------------12---12---12---12---|
F#|--------------------------%----12----|-12------|-12-----12----------|---------------------12---12---12---12---|
C#|--------------------------%----12----|-12------|-12-----12-----12---|-12---12---12---12---12---12---12---12---|
G#|-------------------------------------|---------|---------------11---|-11---11---11---11---11---11---11---11---|
D#|-5-----3---3-------------------------|---------|--------------------|-----------------------------------------|

D#|---------------------------------------|-------------------|---------------|-----------------------------------------------------------------|
A#|-12---12---12---12---12---12---12---12-|-12---12---12------|-12------------|-----------------------------------------------------------------|
F#|-12---12---12---12---12---12---12---12-|-12---12---12------|-12------------|-----------------------------------------------------------------|
C#|-12---12---12---12---12---12---12---12-|-12---12---12------|-12------------|-----------------------------------------------------------------|
G#|-11---11---11---11---11---11---11---11-|-11---11---12------|-12------X-----|-7---7---7---5---5---5-------------------------------------------|
D#|---------------------------------------|-------------------|---------------|-------------------------6---6---6---5---5---5---3---3---0---0---|

D#|----------------0-----------|
A#|----------------0-----------|
F#|-2-----0---0----9----%------|
C#|-2-----0---0----9----%------|
G#|----------------7-----------|
D#|----------------------------|
Guns N' Roses - Welcome To The Jungle (Live Version)
Guns N' Roses - Welcome To The Jungle (Live Version).gp4