Guns N' Roses - Yesterdays

Guns N' Roses - Yesterdays

Guns N Roses



Title: Yesterdays
Album: Use Your Illusion 2
Artist: Guns N' Roses
Author: West Arkeen, Del James, Billy Mcloud and Axl Rose

Track 1: Guitar 1
D#|-----------------0---2---------------------------0---2-----------|-----------2----0----0------------3---------------|
A#|---------3-------------------3-----------3-----------------------|------3------------------3------------3-------3---|
F#|-----2-------2-----------2-----------2-------2---------------0---|------0----------------------0------------0-------|
C#|-0---------------------------0---4-------------------4---0---0---|------2-------------------------------------------|
G#|-----------------------------------------------------------------|-3--------------3---------------------------------|
D#|-----------------------------------------------------------------|--------------------------------------------------|

D#|-----------------0---2---------------------------0---2-----------|-----------2----0----0------------3---------------|
A#|---------3-------------------3-----------3-----------------------|------3------------------3------------3-------3---|
F#|-----2-------2-----------2-----------2-------2---------------0---|------0----------------------0------------0-------|
C#|-0---------------------------0---4-------------------4---0---0---|------2-------------------------------------------|
G#|-----------------------------------------------------------------|-3--------------3---------------------------------|
D#|-----------------------------------------------------------------|--------------------------------------------------|

D#|-----------------0---2---------------------------0---2-----------|-----------2----0----0------------3---------------|
A#|---------3-------------------3-----------3-----------------------|------3------------------3------------3-------3---|
F#|-----2-------2-----------2-----------2-------2---------------0---|------0----------------------0------------0-------|
C#|-0---------------------------0---4-------------------4---0---0---|------2-------------------------------------------|
G#|-----------------------------------------------------------------|-3--------------3---------------------------------|
D#|-----------------------------------------------------------------|--------------------------------------------------|

D#|-----------------0---2---------------------------0---2-----------|-----------2----0----0------------3---------------|
A#|---------3-------------------3-----------3-----------------------|------3------------------3------------3-------3---|
F#|-----2-------2-----------2-----------2-------2---------------0---|------0----------------------0------------0-------|
C#|-0---------------------------0---4-------------------4---0---0---|------2-------------------------------------------|
G#|-----------------------------------------------------------------|-3--------------3---------------------------------|
D#|-----------------------------------------------------------------|--------------------------------------------------|

D#|-2-----2-----0-----0---0---0---0----|-3-----3-----3----3---3---3----3---3---|-2-----2-----2----2----2----3----|
A#|-3-----3-----3-----3---3---3---3----|-3-----3-----3----3---3---3----3---3---|-3-----3-----3----3----3----3----|
F#|-2-----2-----0-----0---0---0---0----|-0-----0-----0----0---0---0----0---0---|-2-----2-----2----2----2----0----|
C#|-0-----0-----2-----2---2---2---2----|-0-----0-----0----0---0---0----0---0---|-0-----0-----0----0----0----0----|
G#|-------------3-----3---3---3---3----|---------------------------------------|---------------------------------|
D#|------------------------------------|-3-----3-----3----3---3---3----3---3---|----------------------------3----|

D#|-3-------|-3-------------|-------------------|---------------|-3-------3----3----|
A#|-3-------|-3-------------|-2-----------------|---------------|-3-------3----3----|
F#|-0-------|-0-------------|-2------------5----|-5-------5-----|-0-------0----0----|
C#|-0-------|-0-------------|-2------------5----|-5-------5-----|-0-------0----0----|
G#|---------|---------------|-0-------2----3----|-3-------3-----|-------------------|
D#|-3-------|-3-------X-----|-------------------|---------------|-3-------3----3----|

D#|-3-------|-------------------|---------------|-3-----3-----3------3----|-3------3----3----3---3---3----|
A#|-3-------|-2-----------------|---------------|-3-----3-----3------3----|-3------3----3----3---3---3----|
F#|-0-------|-2------------5----|-5-------5-----|-0-----0-----0------0----|-0------0----0----0---0---0----|
C#|-0-------|-2------------5----|-5-------5-----|-0-----0-----0------0----|-0------0----0----0---0---0----|
G#|---------|-0-------2----3----|-3-------3-----|-------------------------|-------------------------------|
D#|-3-------|-------------------|---------------|-3-----3-----3------3----|-3------3----3----3---3---3----|

D#|-2-----2-----2----2-----3----|-3----3----3-----3-----3-----|-2-----2-----2----2-----3----|
A#|-3-----3-----3----3-----3----|-3----3----3-----3-----3-----|-3-----3-----3----3-----3----|
F#|-4-----4-----4----4-----4----|-4----4----4-----4-----4-----|-4-----4-----4----4-----4----|
C#|-4-----4-----4----4-----5----|-5----5----5-----5-----5-----|-4-----4-----4----4-----5----|
G#|-2-----2-----2----2-----5----|-5----5----5-----5-----5-----|-2-----2-----2----2-----5----|
D#|------------------------3----|-3----3----3-----3-----3-----|------------------------3----|

D#|-3----3----3-----3-----3-----|-2-----2-----2----2----------|-----------------------------|
A#|-3----3----3-----3-----3-----|-3-----3-----3----3-----5----|-5-----5-----5----5-----7----|
F#|-4----4----4-----4-----4-----|-4-----4-----4----4-----6----|-6-----6-----6----6-----7----|
C#|-5----5----5-----5-----5-----|-4-----4-----4----4-----6----|-6-----6-----6----6-----7----|
G#|-5----5----5-----5-----5-----|-2-----2-----2----2-----4----|-4-----4-----4----4-----5----|
D#|-3----3----3-----3-----3-----|-----------------------------|-----------------------------|

D#|-----------------------------|-----------------------------|-----------------------------------------|
A#|-7-----7-----7----7-----9----|-9----9----9-----9-----9-----|-9----9----9----9----9----9----9----9----|
F#|-7-----7-----7----7-----9----|-9----9----9-----9-----9-----|-9----9----9----9----9----9----9----9----|
C#|-7-----7-----7----7-----9----|-9----9----9-----9-----9-----|-9----9----9----9----9----9----9----9----|
G#|-5-----5-----5----5-----7----|-7----7----7-----7-----7-----|-7----7----7----7----7----7----7----7----|
D#|-----------------------------|-----------------------------|-----------------------------------------|

D#|-----------------0---2---------------------------0---2-----------|-----------2----0----0------------3---------------|
A#|---------3-------------------3-----------3-----------------------|------3------------------3------------3-------3---|
F#|-----2-------2-----------2-----------2-------2---------------0---|------0----------------------0------------0-------|
C#|-0---------------------------0---4-------------------4---0---0---|------2-------------------------------------------|
G#|-----------------------------------------------------------------|-3--------------3---------------------------------|
D#|-----------------------------------------------------------------|--------------------------------------------------|

D#|-----------------0---2---------------------------0---2-----------|-----------2----0----0------------3---------------|
A#|---------3-------------------3-----------3-----------------------|------3------------------3------------3-------3---|
F#|-----2-------2-----------2-----------2-------2---------------0---|------0----------------------0------------0-------|
C#|-0---------------------------0---4-------------------4---0---0---|------2-------------------------------------------|
G#|-----------------------------------------------------------------|-3--------------3---------------------------------|
D#|-----------------------------------------------------------------|--------------------------------------------------|

D#|-2-----2-----0-----0---0---0---0----|-3-----3-----3----3---3---3----3---3---|-2-----2-----2----2----2----3----|
A#|-3-----3-----3-----3---3---3---3----|-3-----3-----3----3---3---3----3---3---|-3-----3-----3----3----3----3----|
F#|-2-----2-----0-----0---0---0---0----|-0-----0-----0----0---0---0----0---0---|-2-----2-----2----2----2----0----|
C#|-0-----0-----2-----2---2---2---2----|-0-----0-----0----0---0---0----0---0---|-0-----0-----0----0----0----0----|
G#|-------------3-----3---3---3---3----|---------------------------------------|---------------------------------|
D#|------------------------------------|-3-----3-----3----3---3---3----3---3---|----------------------------3----|

D#|-3-------------|-------------------|---------------|-3-------3----3----|-3-------|
A#|-3-------------|-2-----------------|---------------|-3-------3----3----|-3-------|
F#|-0-------------|-2------------5----|-5-------5-----|-0-------0----0----|-0-------|
C#|-0-------------|-2------------5----|-5-------5-----|-0-------0----0----|-0-------|
G#|---------------|-0-------2----3----|-3-------3-----|-------------------|---------|
D#|-3-------X-----|-------------------|---------------|-3-------3----3----|-3-------|

D#|-------------------|---------------|-3-----3-----3------3----|-3------3----3----3---3---3----|
A#|-2-----------------|---------------|-3-----3-----3------3----|-3------3----3----3---3---3----|
F#|-2------------5----|-5-------5-----|-0-----0-----0------0----|-0------0----0----0---0---0----|
C#|-2------------5----|-5-------5-----|-0-----0-----0------0----|-0------0----0----0---0---0----|
G#|-0-------2----3----|-3-------3-----|-------------------------|-------------------------------|
D#|-------------------|---------------|-3-----3-----3------3----|-3------3----3----3---3---3----|

D#|-------------------|---------------|-3-------3----3----|-3-------|-------------------|
A#|-2-----------------|---------------|-3-------3----3----|-3-------|-2-----------------|
F#|-2------------5----|-5-------5-----|-0-------0----0----|-0-------|-2------------5----|
C#|-2------------5----|-5-------5-----|-0-------0----0----|-0-------|-2------------5----|
G#|-0-------2----3----|-3-------3-----|-------------------|---------|-0-------2----3----|
D#|-------------------|---------------|-3-------3----3----|-3-------|-------------------|

D#|---------|---------|---------|---------|---------|---------|---------|---------|
A#|---------|---------|---------|---------|---------|---------|---------|---------|
F#|-5-------|-5-------|-5-------|-%-------|-%-------|-%-------|-%-------|-%-------|
C#|-5-------|-5-------|-5-------|-%-------|-%-------|-%-------|-%-------|-%-------|
G#|-3-------|-3-------|-3-------|---------|---------|---------|---------|---------|
D#|---------|---------|---------|---------|---------|---------|---------|---------|

D#|---------|---------|
A#|---------|---------|
F#|-%-------|-%-------|
C#|-%-------|-%-------|
G#|---------|---------|
D#|---------|---------|
Guns N' Roses - Yesterdays
Guns N' Roses - Yesterdays.gp3