Guns N' Roses - You Ain't the First

Guns N' Roses - You Ain't the First

Guns N Roses



Title: You Ain't the First
Album: 
Artist: 
Author: Guns N'Roses

Track 1: Acoustic Guitar
D#|--------------|-------------------|-------------------|-0-------|-0------0----0----0----|
A#|--------------|-------------------|-------------------|-0-------|-2------2----2----2----|
F#|-%------%-----|-%-----%-----%-----|-%-----%-----%-----|-1-------|-2------2----2----2----|
C#|-%------%-----|-%-----%-----%-----|-%-----%-----%-----|-2-------|-2------2----2----2----|
G#|--------------|-------------------|-------------------|-2-------|-0------0----0----0----|
D#|--------------|-------------------|-------------------|-0-------|-----------------------|

D#|-0------0----0----0----|-0------0----0-----|-0------0-----|-0------0-----|-0-------|
A#|-0------0----0----0----|-2------2----2-----|-0------0-----|-2------2-----|-0-------|
F#|-1------1----1----1----|-2------2----2-----|-1------1-----|-2------2-----|-1-------|
C#|-2------2----2----2----|-2------2----2-----|-2------2-----|-2------2-----|-2-------|
G#|-2------2----2----2----|-0------0----0-----|-2------2-----|-0------0-----|-2-------|
D#|-0------0----0----0----|-------------------|-0------0-----|--------------|-0-------|

D#|-0-------|-0----------------|-0------0----0----0----|-0-----0----0----0----0----|
A#|-0-------|-0----------------|-0------0----0----0----|-2-----2----2----2----2----|
F#|-1-------|-1------0----0----|-1------1----1----1----|-2-----2----2----2----2----|
C#|-2-------|-2------0----0----|-2------2----2----2----|-2-----2----2----2----2----|
G#|-2-------|-2------0----0----|-2------2----2----2----|-0-----0----0----0----0----|
D#|-0-------|-0----------------|-0------0----0----0----|---------------------------|

D#|-0------0----0----0----|-0-----0----0----0----0----|-0-----0----0----0----0----|
A#|-0------0----0----0----|-2-----2----2----2----2----|-0-----0----0----0----0----|
F#|-1------1----1----1----|-2-----2----2----2----2----|-1-----1----1----1----1----|
C#|-2------2----2----2----|-2-----2----2----2----2----|-2-----2----2----2----2----|
G#|-2------2----2----2----|-0-----0----0----0----0----|-2-----2----2----2----2----|
D#|-0------0----0----0----|---------------------------|-0-----0----0----0----0----|

D#|-0-----0----0----0----0----|-0-----0----0----0----0----|-0-----0----0----0----0----|
A#|-2-----2----2----2----2----|-0-----0----0----0----0----|-2-----2----2----2----2----|
F#|-2-----2----2----2----2----|-1-----1----1----1----1----|-2-----2----2----2----2----|
C#|-2-----2----2----2----2----|-2-----2----2----2----2----|-2-----2----2----2----2----|
G#|-0-----0----0----0----0----|-2-----2----2----2----2----|-0-----0----0----0----0----|
D#|---------------------------|-0-----0----0----0----0----|---------------------------|

D#|-0-----0----0----0----0----|-0-----0----0----0----0----|-0-----0----0----0----0----|
A#|-0-----0----0----0----0----|-2-----2----2----2----2----|-0-----0----0----0----0----|
F#|-1-----1----1----1----1----|-2-----2----2----2----2----|-1-----1----1----1----1----|
C#|-2-----2----2----2----2----|-2-----2----2----2----2----|-2-----2----2----2----2----|
G#|-2-----2----2----2----2----|-0-----0----0----0----0----|-2-----2----2----2----2----|
D#|-0-----0----0----0----0----|---------------------------|-0-----0----0----0----0----|

D#|-0-----0----0----0----0----|-0-----0----0----0----0----|-0-----0-----0-----|-0-----0----0----0-----|
A#|-2-----2----2----2----2----|-0-----0----0----0----0----|-2-----2-----2-----|-0-----0----0----0-----|
F#|-2-----2----2----2----2----|-1-----1----1----1----1----|-2-----2-----2-----|-1-----1----1----1-----|
C#|-2-----2----2----2----2----|-2-----2----2----2----2----|-2-----2-----2-----|-2-----2----2----2-----|
G#|-0-----0----0----0----0----|-2-----2----2----2----2----|-0-----0-----0-----|-2-----2----2----2-----|
D#|---------------------------|-0-----0----0----0----0----|-------------------|-0-----0----0----0-----|

D#|-0-------|-0------------|-0------0----0----0----|-0------0----0----0----|-0------0----0----0----|
A#|-2-------|-2------------|-0------0----0----0----|-0------0----0----0----|-0------0----0----0----|
F#|-2-------|-2------0-----|-1------1----1----1----|-1------1----1----1----|-1------1----1----1----|
C#|-2-------|-2------0-----|-2------2----2----2----|-2------2----2----2----|-2------2----2----2----|
G#|-0-------|-0------0-----|-2------2----2----2----|-2------2----2----2----|-2------2----2----2----|
D#|---------|--------------|-0------0----0----0----|-0------0----0----0----|-0------0----0----0----|

D#|-0-----0----0----0----0----|-0------0----0----0----|-0-----0----0----0----0----|
A#|-0-----0----0----0----0----|-0------0----0----0----|-2-----2----2----2----2----|
F#|-1-----1----1----1----1----|-1------1----1----1----|-2-----2----2----2----2----|
C#|-2-----2----2----2----2----|-2------2----2----2----|-2-----2----2----2----2----|
G#|-2-----2----2----2----2----|-2------2----2----2----|-0-----0----0----0----0----|
D#|-0-----0----0----0----0----|-0------0----0----0----|---------------------------|

D#|-0------0----0----0----|-0-----0----0----0----0----|-0-----0----0----0----0----|
A#|-0------0----0----0----|-2-----2----2----2----2----|-0-----0----0----0----0----|
F#|-1------1----1----1----|-2-----2----2----2----2----|-1-----1----1----1----1----|
C#|-2------2----2----2----|-2-----2----2----2----2----|-2-----2----2----2----2----|
G#|-2------2----2----2----|-0-----0----0----0----0----|-2-----2----2----2----2----|
D#|-0------0----0----0----|---------------------------|-0-----0----0----0----0----|

D#|-0-----0----0----0----0----|-0-----0----0----0----0----|-0-----0----0----0----0----|
A#|-2-----2----2----2----2----|-0-----0----0----0----0----|-2-----2----2----2----2----|
F#|-2-----2----2----2----2----|-1-----1----1----1----1----|-2-----2----2----2----2----|
C#|-2-----2----2----2----2----|-2-----2----2----2----2----|-2-----2----2----2----2----|
G#|-0-----0----0----0----0----|-2-----2----2----2----2----|-0-----0----0----0----0----|
D#|---------------------------|-0-----0----0----0----0----|---------------------------|

D#|-0-----0----0----0----0----|-0-----0----0----0----0----|-0-----0----0----0----0----|
A#|-0-----0----0----0----0----|-2-----2----2----2----2----|-0-----0----0----0----0----|
F#|-1-----1----1----1----1----|-2-----2----2----2----2----|-1-----1----1----1----1----|
C#|-2-----2----2----2----2----|-2-----2----2----2----2----|-2-----2----2----2----2----|
G#|-2-----2----2----2----2----|-0-----0----0----0----0----|-2-----2----2----2----2----|
D#|-0-----0----0----0----0----|---------------------------|-0-----0----0----0----0----|

D#|-0-----0----0----0----0----|-0-----0----0----0----0----|-0-----0-----0-----|-0-----0----0----0-----|
A#|-2-----2----2----2----2----|-0-----0----0----0----0----|-2-----2-----2-----|-0-----0----0----0-----|
F#|-2-----2----2----2----2----|-1-----1----1----1----1----|-2-----2-----2-----|-1-----1----1----1-----|
C#|-2-----2----2----2----2----|-2-----2----2----2----2----|-2-----2-----2-----|-2-----2----2----2-----|
G#|-0-----0----0----0----0----|-2-----2----2----2----2----|-0-----0-----0-----|-2-----2----2----2-----|
D#|---------------------------|-0-----0----0----0----0----|-------------------|-0-----0----0----0-----|

D#|-0-------|-0------------|-0------0----0-----|-0-----0----0----0----0----|-0-----0-----0-----|
A#|-2-------|-2------------|-0------0----0-----|-0-----0----0----0----0----|-0-----0-----0-----|
F#|-2-------|-2------0-----|-1------1----1-----|-1-----1----1----1----1----|-1-----1-----1-----|
C#|-2-------|-2------0-----|-2------2----2-----|-2-----2----2----2----2----|-2-----2-----2-----|
G#|-0-------|-0------0-----|-2------2----2-----|-2-----2----2----2----2----|-2-----2-----2-----|
D#|---------|--------------|-0------0----0-----|-0-----0----0----0----0----|-0-----0-----0-----|

D#|-0-----0-----0----0----|-0-----0----0----0----0----|-4-----4----4----4----4----|
A#|-0-----0-----0----0----|-0-----0----0----0----0----|-4-----4----4----4----4----|
F#|-1-----1-----1----1----|-1-----1----1----1----1----|-5-----5----5----5----5----|
C#|-2-----2-----2----2----|-2-----2----2----2----2----|-6-----6----6----6----6----|
G#|-2-----2-----2----2----|-2-----2----2----2----2----|-6-----6----6----6----6----|
D#|-0-----0-----0----0----|-0-----0----0----0----0----|-4-----4----4----4----4----|

D#|-5-----5----5----5----5----|-7-----7----7----7----7----|-0-----0----0----0----0----|
A#|-5-----5----5----5----5----|-7-----7----7----7----7----|-0-----0----0----0----0----|
F#|-6-----6----6----6----6----|-8-----8----8----8----8----|-1-----1----1----1----1----|
C#|-7-----7----7----7----7----|-9-----9----9----9----9----|-2-----2----2----2----2----|
G#|-7-----7----7----7----7----|-9-----9----9----9----9----|-2-----2----2----2----2----|
D#|-5-----5----5----5----5----|-7-----7----7----7----7----|-0-----0----0----0----0----|

D#|-4-----4----4----4----4----|-5-----5----5----5----5----|-7-----7----7----7----7----|
A#|-4-----4----4----4----4----|-5-----5----5----5----5----|-7-----7----7----7----7----|
F#|-5-----5----5----5----5----|-6-----6----6----6----6----|-8-----8----8----8----8----|
C#|-6-----6----6----6----6----|-7-----7----7----7----7----|-9-----9----9----9----9----|
G#|-6-----6----6----6----6----|-7-----7----7----7----7----|-9-----9----9----9----9----|
D#|-4-----4----4----4----4----|-5-----5----5----5----5----|-7-----7----7----7----7----|

D#|-0-----0----0----0----0----|-4-----4----4----4----4----|-5-----5----5----5----5----|
A#|-0-----0----0----0----0----|-4-----4----4----4----4----|-5-----5----5----5----5----|
F#|-1-----1----1----1----1----|-5-----5----5----5----5----|-6-----6----6----6----6----|
C#|-2-----2----2----2----2----|-6-----6----6----6----6----|-7-----7----7----7----7----|
G#|-2-----2----2----2----2----|-6-----6----6----6----6----|-7-----7----7----7----7----|
D#|-0-----0----0----0----0----|-4-----4----4----4----4----|-5-----5----5----5----5----|

D#|-0-----0----0----0----0----|-0-----0----0----0----0----|-4-----4----4----4----4----|
A#|-0-----0----0----0----0----|-0-----0----0----0----0----|-4-----4----4----4----4----|
F#|-1-----1----1----1----1----|-1-----1----1----1----1----|-5-----5----5----5----5----|
C#|-2-----2----2----2----2----|-2-----2----2----2----2----|-6-----6----6----6----6----|
G#|-2-----2----2----2----2----|-2-----2----2----2----2----|-6-----6----6----6----6----|
D#|-0-----0----0----0----0----|-0-----0----0----0----0----|-4-----4----4----4----4----|

D#|-5-----5----5----5----5----|-7-----7----7----7----7----|-7-----7----7----7----7----|
A#|-5-----5----5----5----5----|-7-----7----7----7----7----|-7-----7----7----7----7----|
F#|-6-----6----6----6----6----|-8-----8----8----8----8----|-8-----8----8----8----8----|
C#|-7-----7----7----7----7----|-9-----9----9----9----9----|-9-----9----9----9----9----|
G#|-7-----7----7----7----7----|-9-----9----9----9----9----|-9-----9----9----9----9----|
D#|-5-----5----5----5----5----|-7-----7----7----7----7----|-7-----7----7----7----7----|

D#|-7-----7----7----7----7----|-5-----4----4----2-----|-0-----0----0----0-----|-0-----0----0----0----0----|
A#|-7-----7----7----7----7----|-5-----4----4----2-----|-0-----0----0----0-----|-2-----2----2----2----2----|
F#|-8-----8----8----8----8----|-6-----4----4----2-----|-1-----1----1----1-----|-2-----2----2----2----2----|
C#|-9-----9----9----9----9----|-7-----6----6----4-----|-2-----2----2----2-----|-2-----2----2----2----2----|
G#|-9-----9----9----9----9----|-7-----6----6----4-----|-2-----2----2----2-----|-0-----0----0----0----0----|
D#|-7-----7----7----7----7----|-5-----4----4----2-----|-0-----0----0----0-----|---------------------------|

D#|-0----0----0----0----0----0----|-0----0----0----0----0----0----|-0------0----0-----|
A#|-0----0----0----0----0----0----|-2----2----2----2----2----2----|-0------0----0-----|
F#|-1----1----1----1----1----1----|-2----2----2----2----2----2----|-1------1----1-----|
C#|-2----2----2----2----2----2----|-2----2----2----2----2----2----|-2------2----2-----|
G#|-2----2----2----2----2----2----|-0----0----0----0----0----0----|-2------2----2-----|
D#|-0----0----0----0----0----0----|-------------------------------|-0------0----0-----|

D#|-0------0----0----0----|-0------0----0-----|-0------0----0----0----|-0------0----0-----|
A#|-2------2----2----2----|-0------0----0-----|-2------2----2----2----|-0------0----0-----|
F#|-2------2----2----2----|-1------1----1-----|-2------2----2----2----|-1------1----1-----|
C#|-2------2----2----2----|-2------2----2-----|-2------2----2----2----|-2------2----2-----|
G#|-0------0----0----0----|-2------2----2-----|-0------0----0----0----|-2------2----2-----|
D#|-----------------------|-0------0----0-----|-----------------------|-0------0----0-----|

D#|-0------0----0----0----|-0------0----0-----|-0------0----0----0----|-0------0----0-----|
A#|-2------2----2----2----|-0------0----0-----|-2------2----2----2----|-0------0----0-----|
F#|-2------2----2----2----|-1------1----1-----|-2------2----2----2----|-1------1----1-----|
C#|-2------2----2----2----|-2------2----2-----|-2------2----2----2----|-2------2----2-----|
G#|-0------0----0----0----|-2------2----2-----|-0------0----0----0----|-2------2----2-----|
D#|-----------------------|-0------0----0-----|-----------------------|-0------0----0-----|

D#|-0------0----0----0----|-0------0----0-----|-0------0----0----0----|-0------0----0----0----|
A#|-2------2----2----2----|-0------0----0-----|-2------2----2----2----|-0------0----0----0----|
F#|-2------2----2----2----|-1------1----1-----|-2------2----2----2----|-1------1----1----1----|
C#|-2------2----2----2----|-2------2----2-----|-2------2----2----2----|-2------2----2----2----|
G#|-0------0----0----0----|-2------2----2-----|-0------0----0----0----|-2------2----2----2----|
D#|-----------------------|-0------0----0-----|-----------------------|-0------0----0----0----|

D#|-0-------|
A#|-0-------|
F#|-1-------|
C#|-2-------|
G#|-2-------|
D#|-0-------|
Guns N' Roses - You Ain't the First
Guns N' Roses - You Ain't the First.gp3