Guns N' Roses - You Could Be Mine (2)

Guns N Roses



Title: You Could Be Mine
Album: Use Your Ilusion II
Artist: Guns N'Roses
Author: Written by Stradlin and Rose

Track 1: Guitar 1
D#|---------|---------|---------|---------|---------|---------|---------|--------------------|
A#|---------|---------|---------|---------|---------|---------|---------|-------14----14-----|
F#|-%-------|-%-------|-%-------|-%-------|-%-------|-%-------|-%-------|-%-----14----14-----|
C#|-%-------|-%-------|-%-------|-%-------|-%-------|-%-------|-%-------|-%------------------|
G#|---------|---------|---------|---------|---------|---------|---------|--------------------|
D#|---------|---------|---------|---------|---------|---------|---------|--------------------|

D#|---------|---------|---------|---------|---------|---------|------------------------|
A#|-14------|-14------|-14------|-14------|-14------|-14------|-14----------16----14---|
F#|-14------|-14------|-14------|-14------|-14------|-14------|-14-----%----16----14---|
C#|---------|---------|---------|---------|---------|---------|--------%---------------|
G#|---------|---------|---------|---------|---------|---------|------------------------|
D#|---------|---------|---------|---------|---------|---------|------------------------|

D#|-------------------|------------------------|-------------------|------------------------|
A#|------14---14------|-14-----14---14----12---|------12---12------|-12-----12---16----14---|
F#|------14---14------|-14-----14---14----12---|------12---12------|-12-----12---16----14---|
C#|-16----------------|------------------------|-14----------------|------------------------|
G#|-------------------|------------------------|-------------------|------------------------|
D#|-------------------|------------------------|-------------------|------------------------|

D#|-------------------|------------------------|-------------------|------------------------|
A#|------14---14------|-14-----14---14----12---|------12---12------|-12-----12---16----14---|
F#|------14---14------|-14-----14---14----12---|------12---12------|-12-----12---16----14---|
C#|-16----------------|------------------------|-14----------------|------------------------|
G#|-------------------|------------------------|-------------------|------------------------|
D#|-------------------|------------------------|-------------------|------------------------|

D#|---------------------------------|---------------------------------|---------------------------------|
A#|------14---14---14----16----14---|------14---14---14----14----12---|------12---12---12----14----12---|
F#|------14---14---14----16----14---|------14---14---14----14----12---|------12---12---12----14----12---|
C#|-16------------------------------|-16------------------------------|-14------------------------------|
G#|---------------------------------|---------------------------------|---------------------------------|
D#|---------------------------------|---------------------------------|---------------------------------|

D#|---------------------------------|---------------------------------|---------------------------------|
A#|------12---12---12----16----14---|------14---14---14----16----14---|------14---14---14----14----12---|
F#|------12---12---12----16----14---|------14---14---14----16----14---|------14---14---14----14----12---|
C#|-14------------------------------|-16------------------------------|-16------------------------------|
G#|---------------------------------|---------------------------------|---------------------------------|
D#|---------------------------------|---------------------------------|---------------------------------|

D#|---------------------------------|-----------------------------|---------|---------|
A#|------12---------12---------12---|-12--------12---------12-----|---------|-9-------|
F#|------12---------12---------12---|-12--------12---------12-----|-9-------|---------|
C#|-14---------14---------14--------|------14---------14----------|---------|---------|
G#|---------------------------------|-----------------------------|---------|---------|
D#|---------------------------------|-----------------------------|---------|---------|

D#|---------|---------|---------|---------|---------|--------------------|--------------------|
A#|-10------|-12------|-12------|-12------|-12------|-12-----------------|--------------------|
F#|---------|---------|---------|---------|---------|--------9------9----|-9------9------9----|
C#|---------|---------|---------|---------|---------|--------------------|--------------------|
G#|---------|---------|---------|---------|---------|--------------------|--------------------|
D#|---------|---------|---------|---------|---------|--------------------|--------------------|

D#|------------------------|-----------------------------------------------|-----------------------------------------------|
A#|-------------------7----|-------------------------------7---5-----------|-----7---5---2---------------------------------|
F#|-9------9-----9---------|-9---6---------------------6-----------6---4---|-4-------2---2---4----2----4----2--------------|
C#|------------------------|-----------9-----7---9-------------------------|-------------------------------------4----2----|
G#|------------------------|-----------------------------------------------|-----------------------------------------------|
D#|------------------------|-----------------------------------------------|-----------------------------------------------|

D#|-----------2--------------2---------2----|-2---------------------------------------|
A#|-----------2--------------2---------2----|-2---------------------------------------|
F#|-----------------------------------------|------2----4----2----4----2--------------|
C#|----------------4----4---------4---------|-4----2----4----2----4----2----4----2----|
G#|-4----4----------------------------------|-------------------------------4----2----|
D#|-2----2----------------------------------|-----------------------------------------|

D#|-----------2--------------2---------2----|-2---------------------------------------|
A#|-----------2--------------2---------2----|-2---------------------------------------|
F#|-----------------------------------------|------2----4----2----4----2--------------|
C#|----------------4----4---------4---------|-4----2----4----2----4----2----4----2----|
G#|-4----4----------------------------------|-------------------------------4----2----|
D#|-2----2----------------------------------|-----------------------------------------|

D#|-----------0--------------0---------0----|-0---------------------------------------|
A#|-----------0--------------0---------0----|-0---------------------------------------|
F#|-----------------------------------------|------2----4----2----4----2--------------|
C#|----------------2----2---------2---------|------2----4----2----4----2----4----2----|
G#|-2----2----------------------------------|-------------------------------4----2----|
D#|-0----0----------------------------------|-----------------------------------------|

D#|-----------2--------------2---------2----|-2---------------------------------------|
A#|-----------2--------------2---------2----|-2---------------------------------------|
F#|-----------------------------------------|------2----4----2----4----2--------------|
C#|----------------4----4---------4---------|-4----2----4----2----4----2----4----2----|
G#|-4----4----------------------------------|-------------------------------4----2----|
D#|-2----2----------------------------------|-----------------------------------------|

D#|-----------2--------------2---------2----|-2---------------------------------------|
A#|-----------2--------------2---------2----|-2---------------------------------------|
F#|-----------------------------------------|------2----4----2----4----2--------------|
C#|----------------4----4---------4---------|-4----2----4----2----4----2----4----2----|
G#|-4----4----------------------------------|-------------------------------4----2----|
D#|-2----2----------------------------------|-----------------------------------------|

D#|-----------2--------------2---------2----|-2---------------------------------------|
A#|-----------2--------------2---------2----|-2---------------------------------------|
F#|-----------------------------------------|------2----4----2----4----2--------------|
C#|----------------4----4---------4---------|-4----2----4----2----4----2----4----2----|
G#|-4----4----------------------------------|-------------------------------4----2----|
D#|-2----2----------------------------------|-----------------------------------------|

D#|-----------0--------------0---------0----|-0---------------------------------------|
A#|-----------0--------------0---------0----|-0---------------------------------------|
F#|-----------------------------------------|------2----4----2----4----2--------------|
C#|----------------2----2---------2---------|------2----4----2----4----2----4----2----|
G#|-2----2----------------------------------|-------------------------------4----2----|
D#|-0----0----------------------------------|-----------------------------------------|

D#|-----------2--------------2---------2----|-2---------------------------------------|
A#|-----------2--------------2---------2----|-2---------------------------------------|
F#|-----------------------------------------|------2----4----2----4----2--------------|
C#|----------------4----4---------4---------|-4----2----4----2----4----2----4----2----|
G#|-4----4----------------------------------|-------------------------------4----2----|
D#|-2----2----------------------------------|-----------------------------------------|

D#|---------|---------|---------|---------|---------|---------|---------|---------|
A#|---------|---------|---------|---------|---------|---------|---------|---------|
F#|-2-------|-4-------|---------|---------|-2-------|-4-------|---------|---------|
C#|-2-------|-4-------|-4-------|-4-------|-2-------|-4-------|-4-------|-4-------|
G#|-0-------|-2-------|-4-------|-4-------|-0-------|-2-------|-4-------|-4-------|
D#|---------|---------|-2-------|-2-------|---------|---------|-2-------|-2-------|

D#|---------|---------|---------|---------|---------|---------|---------|-----------------------------------------|
A#|---------|---------|---------|---------|---------|---------|---------|-----------------------------------------|
F#|-2-------|-4-------|---------|---------|-2-------|-4-------|---------|------2----4----2----4----2--------------|
C#|-2-------|-4-------|-4-------|-4-------|-2-------|-4-------|-4-------|-4----2----4----2----4----2----4----2----|
G#|-0-------|-2-------|-4-------|-4-------|-0-------|-2-------|-4-------|-4-----------------------------4----2----|
D#|---------|---------|-2-------|-2-------|---------|---------|-2-------|-2---------------------------------------|

D#|-----------2--------------2---------2----|-2---------------------------------------|
A#|-----------2--------------2---------2----|-2---------------------------------------|
F#|-----------------------------------------|------2----4----2----4----2--------------|
C#|----------------4----4---------4---------|-4----2----4----2----4----2----4----2----|
G#|-4----4----------------------------------|-------------------------------4----2----|
D#|-2----2----------------------------------|-----------------------------------------|

D#|-----------2--------------2---------2----|--------------------|---------------------------------|
A#|-----------2--------------2---------2----|---------------17---|-17-----17---17---14-------------|
F#|-----------------------------------------|-%------%-----------|----------------------------14---|
C#|----------------4----4---------4---------|-%------%-----------|-----------------------16--------|
G#|-4----4----------------------------------|--------------------|---------------------------------|
D#|-2----2----------------------------------|--------------------|---------------------------------|

D#|---------14-----------|-17----17----14-------------16---16---|-16-----14-----------------------|
A#|-17----------17--14---|------------------17---14-------------|-------------17---14-------------|
F#|----------------------|--------------------------------------|-----------------------16---14---|
C#|----------------------|--------------------------------------|---------------------------------|
G#|----------------------|--------------------------------------|---------------------------------|
D#|----------------------|--------------------------------------|---------------------------------|

D#|---------------|-----------------------------------------|-----------2--------------2---------2----|
A#|---------------|-----------------------------------------|-----------2--------------2---------2----|
F#|--------%------|-%----2----4----2----4----2--------------|-----------------------------------------|
C#|-16-----%------|-%----2----4----2----4----2----4----2----|----------------4----4---------4---------|
G#|---------------|-------------------------------4----2----|-4----4----------------------------------|
D#|---------------|-----------------------------------------|-2----2----------------------------------|

D#|-2---------------------------------------|-----------0--------------0---------0----|
A#|-2---------------------------------------|-----------0--------------0---------0----|
F#|------2----4----2----4----2--------------|-----------------------------------------|
C#|-4----2----4----2----4----2----4----2----|----------------2----2---------2---------|
G#|-------------------------------4----2----|-2----2----------------------------------|
D#|-----------------------------------------|-0----0----------------------------------|

D#|-0---------------------------------------|-----------2--------------2---------2----|
A#|-0---------------------------------------|-----------2--------------2---------2----|
F#|------2----4----2----4----2--------------|-----------------------------------------|
C#|------2----4----2----4----2----4----2----|----------------4----4---------4---------|
G#|-------------------------------4----2----|-4----4----------------------------------|
D#|-----------------------------------------|-2----2----------------------------------|

D#|-2---------------------------------------|-----------2--------------2---------2----|
A#|-2---------------------------------------|-----------2--------------2---------2----|
F#|------2----4----2----4----2--------------|-----------------------------------------|
C#|-4----2----4----2----4----2----4----2----|----------------4----4---------4---------|
G#|-------------------------------4----2----|-4----4----------------------------------|
D#|-----------------------------------------|-2----2----------------------------------|

D#|-2---------------------------------------|-----------2--------------2---------2----|
A#|-2---------------------------------------|-----------2--------------2---------2----|
F#|------2----4----2----4----2--------------|-----------------------------------------|
C#|-4----2----4----2----4----2----4----2----|----------------4----4---------4---------|
G#|-------------------------------4----2----|-4----4----------------------------------|
D#|-----------------------------------------|-2----2----------------------------------|

D#|-2---------------------------------------|-----------0--------------0---------0----|
A#|-2---------------------------------------|-----------0--------------0---------0----|
F#|------2----4----2----4----2--------------|-----------------------------------------|
C#|-4----2----4----2----4----2----4----2----|----------------2----2---------2---------|
G#|-------------------------------4----2----|-2----2----------------------------------|
D#|-----------------------------------------|-0----0----------------------------------|

D#|-0---------------------------------------|-----------2--------------2---------2----|
A#|-0---------------------------------------|-----------2--------------2---------2----|
F#|------2----4----2----4----2--------------|-----------------------------------------|
C#|------2----4----2----4----2----4----2----|----------------4----4---------4---------|
G#|-------------------------------4----2----|-4----4----------------------------------|
D#|-----------------------------------------|-2----2----------------------------------|

D#|-2---------------------------------------|---------|---------|---------|---------|
A#|-2---------------------------------------|---------|---------|---------|---------|
F#|------2----4----2----4----2--------------|-2-------|-4-------|---------|---------|
C#|-4----2----4----2----4----2----4----2----|-2-------|-4-------|-4-------|-4-------|
G#|-------------------------------4----2----|-0-------|-2-------|-4-------|-4-------|
D#|-----------------------------------------|---------|---------|-2-------|-2-------|

D#|---------|---------|---------|---------|---------|---------|---------|---------|
A#|---------|---------|---------|---------|---------|---------|---------|---------|
F#|-2-------|-4-------|---------|---------|-2-------|-4-------|---------|---------|
C#|-2-------|-4-------|-4-------|-4-------|-2-------|-4-------|-4-------|-4-------|
G#|-0-------|-2-------|-4-------|-4-------|-0-------|-2-------|-4-------|-4-------|
D#|---------|---------|-2-------|-2-------|---------|---------|-2-------|-2-------|

D#|---------|---------|---------|-----------------------------|-------------------|
A#|---------|---------|---------|------------------16----14---|------14---14------|
F#|-2-------|-4-------|-6-------|-6----%-----%-----16----14---|------14---14------|
C#|-2-------|-4-------|-6-------|-6----%-----%----------------|-16----------------|
G#|-0-------|-2-------|-4-------|-4---------------------------|-------------------|
D#|---------|---------|---------|-----------------------------|-------------------|

D#|------------------------|-------------------|------------------------|-------------------|
A#|-14-----14---14----12---|------12---12------|-12-----12---16----14---|------14---14------|
F#|-14-----14---14----12---|------12---12------|-12-----12---16----14---|------14---14------|
C#|------------------------|-14----------------|------------------------|-16----------------|
G#|------------------------|-------------------|------------------------|-------------------|
D#|------------------------|-------------------|------------------------|-------------------|

D#|------------------------|-------------------|------------------------|---------------------------------|
A#|-14-----14---14----12---|------12---12------|-12-----12---16----14---|------14---14---14----16----14---|
F#|-14-----14---14----12---|------12---12------|-12-----12---16----14---|------14---14---14----16----14---|
C#|------------------------|-14----------------|------------------------|-16------------------------------|
G#|------------------------|-------------------|------------------------|---------------------------------|
D#|------------------------|-------------------|------------------------|---------------------------------|

D#|---------------------------------|---------------------------------|---------------------------------|
A#|------14---14---14----14----12---|------12---12---12----14----12---|------12---12---12----16----14---|
F#|------14---14---14----14----12---|------12---12---12----14----12---|------12---12---12----16----14---|
C#|-16------------------------------|-14------------------------------|-14------------------------------|
G#|---------------------------------|---------------------------------|---------------------------------|
D#|---------------------------------|---------------------------------|---------------------------------|

D#|---------------------------------|---------------------------------|---------------------------------|
A#|------14---14---14----16----14---|------14---14---14----14----12---|------12---------12---------12---|
F#|------14---14---14----16----14---|------14---14---14----14----12---|------12---------12---------12---|
C#|-16------------------------------|-16------------------------------|-14---------14---------14--------|
G#|---------------------------------|---------------------------------|---------------------------------|
D#|---------------------------------|---------------------------------|---------------------------------|

D#|-----------------------------|---------|---------------|----------------------------|
A#|-12--------12---------12-----|---------|---------------|----------------------------|
F#|-12--------12---------12-----|---------|---------------|-------------7----%---------|
C#|------14---------14----------|-5-------|-4------5------|-7------7----7----%----7----|
G#|-----------------------------|-5-------|-4------5------|-7------7----5---------7----|
D#|-----------------------------|-3-------|-2------3------|-5------5--------------5----|

D#|---------|---------|---------------|----------------------------|---------|---------|
A#|---------|---------|---------------|----------------------------|---------|---------|
F#|---------|---------|---------------|-------------7----%---------|---------|---------|
C#|-7-------|-5-------|-4------5------|-7------7----7----%----7----|-7-------|-5-------|
G#|-7-------|-5-------|-4------5------|-7------7----5---------7----|-7-------|-5-------|
D#|-5-------|-3-------|-2------3------|-5------5--------------5----|-5-------|-3-------|

D#|-----------------------|-----------------------|-----------------------|---------|
A#|-----------------------|-----------------------|-----------------------|---------|
F#|-----------------------|-----------------------|-----------------------|---------|
C#|-4------5------9---9---|-9------9------7---7---|-7------7------5---5---|-5-------|
G#|-4------5------9---9---|-9------9------7---7---|-7------7------5---5---|-5-------|
D#|-2------3------7---7---|-7------7------5---5---|-5------5------3---3---|-3-------|

D#|----------------------------|-------------------------------------|-------------------------------------|
A#|--------7----7----7---------|-----------9---------9----------9----|-9-----9----7----9----7--------------|
F#|-%------7----7----7---------|-----------9---------9-----%----9----|-9-----9----7----9----7--------------|
C#|-%---------------------9----|-9----9---------9----------%---------|---------------------------9----7----|
G#|----------------------------|-------------------------------------|-------------------------------------|
D#|----------------------------|-------------------------------------|-------------------------------------|

D#|----------------------------------------|---------------------------------------|
A#|-------7----9---9---9----7----9---------|-9------------------------7------------|
F#|-------7----9---9---9----7----9----7----|-9------7---9---9---------7----9---7---|
C#|-9---------------------------------7----|---------------------7-----------------|
G#|----------------------------------------|---------------------------------------|
D#|----------------------------------------|---------------------------------------|

D#|--------------------------------------------------|-------------------------------------------------------|
A#|--------------------------------------------------|-------------------------------------------------------|
F#|-6----7----6----7----6---7---6-------6---------6--|-6-------%---------------------------------------------|
C#|---------------------------------9--------9-------|-----9---%---9---9----7-------9---------7--------------|
G#|--------------------------------------------------|--------------------------9--------9---------9----8----|
D#|--------------------------------------------------|-------------------------------------------------------|

D#|--------------------------------------------|---------------------------|----------------------7-----------10----|
A#|--------------------------------------------|-----------------------10--|-10---12---10----10-------10--7---------|
F#|--------------------------------------------|--------------%------------|----------------------------------------|
C#|------------------------7-------------------|--------------%---9--------|----------------------------------------|
G#|-8----7----7----5-------7----5--------------|---------------------------|----------------------------------------|
D#|--------------------7-------------7----7----|-10----10------------------|----------------------------------------|

D#|-X--------------10--------9----10--9---7-------9-------7---9---|-7-------10-----------10------------12----12--10----------|
A#|-X----10---7-------------------------------10------10----------|-----10------8---12--------12---10----------------12--10--|
F#|---------------------%-----------------------------------------|----------------------------------------------------------|
C#|---------------------%-----------------------------------------|----------------------------------------------------------|
G#|---------------------------------------------------------------|----------------------------------------------------------|
D#|---------------------------------------------------------------|----------------------------------------------------------|

D#|-14-------------------17----14--17----------|-------14-------------17----14---------------|
A#|-------17---14----------------------14--17--|-17---------17---14-------------17--14--17---|
F#|-----------------16-------------------------|---------------------------------------------|
C#|--------------------------------------------|---------------------------------------------|
G#|--------------------------------------------|---------------------------------------------|
D#|--------------------------------------------|---------------------------------------------|

D#|------14----------17------17--17----14--17--------17---|-17----17--17--17----17----------|
A#|-17-------17--14------14---------------------14--------|---------------------------17----|
F#|-------------------------------------------------------|---------------------------------|
C#|-------------------------------------------------------|---------------------------------|
G#|-------------------------------------------------------|---------------------------------|
D#|-------------------------------------------------------|---------------------------------|

D#|-----------------------------------------------|---------|---------|---------|---------------------------------|
A#|-17---16---------------------------------------|---------|---------|---------|---------------------------------|
F#|-----------16---14-----------------------------|-16------|-16------|-7-------|-7------%----7-----%---6-----%---|
C#|---------------------16--15--14--12--14---12---|-4-------|-6-------|-7-------|-7------%----7-----%---6-----%---|
G#|-----------------------------------------------|-2-------|-4-------|-5-------|-5-----------5---------4---------|
D#|-----------------------------------------------|---------|---------|---------|---------------------------------|

D#|---------|---------|---------|---------------------------------|---------|---------|
A#|---------|---------|---------|---------------------------------|---------|---------|
F#|-4-------|-6-------|-7-------|-7------%----7-----%---6-----%---|-4-------|-6-------|
C#|-4-------|-6-------|-7-------|-7------%----7-----%---6-----%---|-4-------|-6-------|
G#|-2-------|-4-------|-5-------|-5-----------5---------4---------|-2-------|-4-------|
D#|---------|---------|---------|---------------------------------|---------|---------|

D#|---------|---------------------------------|---------|---------|---------|---------|
A#|---------|---------------------------------|---------|---------|---------|---------|
F#|-7-------|-7------%----7-----%---6-----%---|-4-------|-6-------|-7-------|-7-------|
C#|-7-------|-7------%----7-----%---6-----%---|-4-------|-6-------|-7-------|-7-------|
G#|-5-------|-5-----------5---------4---------|-2-------|-4-------|-5-------|-5-------|
D#|---------|---------------------------------|---------|---------|---------|---------|

D#|---------|---------|---------|---------|---------|---------|---------|---------|
A#|---------|---------|---------|---------|---------|---------|---------|---------|
F#|-2-------|-4-------|---------|---------|-2-------|-4-------|---------|---------|
C#|-2-------|-4-------|-4-------|-4-------|-2-------|-4-------|-4-------|-4-------|
G#|-0-------|-2-------|-4-------|-4-------|-0-------|-2-------|-4-------|-4-------|
D#|---------|---------|-2-------|-2-------|---------|---------|-2-------|-2-------|

D#|---------|---------|---------|---------|---------|---------|---------|---------|
A#|---------|---------|---------|---------|---------|---------|---------|---------|
F#|-2-------|-4-------|---------|---------|-2-------|-4-------|-2-------|-4-------|
C#|-2-------|-4-------|-4-------|-4-------|-2-------|-4-------|-2-------|-4-------|
G#|-0-------|-2-------|-4-------|-4-------|-0-------|-2-------|-0-------|-2-------|
D#|---------|---------|-2-------|-2-------|---------|---------|---------|---------|

D#|---------|-----------------------------------------|-----------2--------------2---------2----|
A#|---------|-----------------------------------------|-----------2--------------2---------2----|
F#|-2-------|-2----2----4----2----4----2--------------|-----------------------------------------|
C#|-2-------|-2----2----4----2----4----2----4----2----|----------------4----4---------4---------|
G#|-0-------|-0-----------------------------4----2----|-4----4----------------------------------|
D#|---------|-----------------------------------------|-2----2----------------------------------|

D#|-2---------------------------------------|-----------2--------------2---------2----|
A#|-2---------------------------------------|-----------2--------------2---------2----|
F#|------2----4----2----4----2--------------|-----------------------------------------|
C#|-4----2----4----2----4----2----4----2----|----------------4----4---------4---------|
G#|-------------------------------4----2----|-4----4----------------------------------|
D#|-----------------------------------------|-2----2----------------------------------|

D#|-2---------------------------------------|-----------2--------------2---------2----|
A#|-2---------------------------------------|-----------2--------------2---------2----|
F#|------2----4----2----4----2--------------|-----------------------------------------|
C#|-4----2----4----2----4----2----4----2----|----------------4----4---------4---------|
G#|-------------------------------4----2----|-4----4----------------------------------|
D#|-----------------------------------------|-2----2----------------------------------|

D#|-2---------------------------------------|-----------2--------------2---------2----|
A#|-2---------------------------------------|-----------2--------------2---------2----|
F#|------2----4----2----4----2--------------|-----------------------------------------|
C#|-4----2----4----2----4----2----4----2----|----------------4----4---------4---------|
G#|-------------------------------4----2----|-4----4----------------------------------|
D#|-----------------------------------------|-2----2----------------------------------|

D#|-2---------------------------------------|-------14-------------14-------------|
A#|-2---------------------------------------|-17---------14---17--------14---17---|
F#|------2----4----2----4----2--------------|-------------------------------------|
C#|-4----2----4----2----4----2----4----2----|-------------------------------------|
G#|-------------------------------4----2----|-------------------------------------|
D#|-----------------------------------------|-------------------------------------|

D#|-------17----17---17---14--------|-------14-------------14-------------|------14---17----17---17---14--------|
A#|-17-------------------------14---|-17---------14---17--------14---17---|-17-----------------------------14---|
F#|---------------------------------|-------------------------------------|-------------------------------------|
C#|---------------------------------|-------------------------------------|-------------------------------------|
G#|---------------------------------|-------------------------------------|-------------------------------------|
D#|---------------------------------|-------------------------------------|-------------------------------------|

D#|-------14-------------14-------------|------14---17----17---17---14--------|-------14-------------------------------|
A#|-17---------14---17--------14---17---|-17-----------------------------14---|-17---------17--14----------------------|
F#|-------------------------------------|-------------------------------------|--------------------16----14------------|
C#|-------------------------------------|-------------------------------------|------------------------------16---16---|
G#|-------------------------------------|-------------------------------------|----------------------------------------|
D#|-------------------------------------|-------------------------------------|----------------------------------------|

D#|-----------------------------------------|-------------------------------|
A#|-----------------------------------------|-------------------------------|
F#|-----------------------------------------|-------------------------------|
C#|-16---14---------------------------------|-------------------------------|
G#|-----------14---12---14---12-------------|-------------------------------|
D#|-------------------------------14---12---|-14-----1----1----0--2----2----|
Guns N' Roses - You Could Be Mine (2)
Guns N' Roses - You Could Be Mine (2).gp3