Iron Maiden - 2 AM

Iron Maiden - 2 AM

Iron Maiden



Title: 2 AM
Album: The X Factor
Artist: Iron Maiden
Author: Iron Maiden

Track 1: Acoustic Guitar
E|---------------------0-------------------------0-----|---------------------0---------------------------|
B|---------1---0---0-----------------1---0---0---------|-------------0---0-----------------1---0---0-----|
G|---------2-------------------------0-----------------|---------5-------------------------2-------------|
D|-----2-------------------------2---------------------|-----4---5---------------------2-----------------|
A|-0-------------------------3-------------------------|-5-------------------------0---------------------|
E|-----------------------------------------------------|-------------------------------------------------|

E|---------------------0-------------------------0-----|---------------------0---------------------------|
B|---------1---0---0-----------------1---0---0---------|-------------0---0-----------------1---0---0-----|
G|---------2-------------------------0-----------------|---------5-------------------------2-------------|
D|-----2-------------------------2---------------------|-----4---5---------------------2-----------------|
A|-0-------------------------3-------------------------|-5-------------------------0---------------------|
E|-----------------------------------------------------|-------------------------------------------------|

E|---------------------0-------------------------0-----|---------------------0---------------------------|
B|---------1---0---0-----------------1---0---0---------|-------------0---0-----------------1---0---0-----|
G|---------2-------------------------0-----------------|---------5-------------------------2-------------|
D|-----2-------------------------2---------------------|-----4---5---------------------2-----------------|
A|-0-------------------------3-------------------------|-5-------------------------0---------------------|
E|-----------------------------------------------------|-------------------------------------------------|

E|---------------------0-------------------------0-----|---------------------0---------------------------|
B|---------1---0---0-----------------1---0---0---------|-------------0---0-----------------1---0---0-----|
G|---------2-------------------------0-----------------|---------5-------------------------2-------------|
D|-----2-------------------------2---------------------|-----4---5---------------------2-----------------|
A|-0-------------------------3-------------------------|-5-------------------------0---------------------|
E|-----------------------------------------------------|-------------------------------------------------|

E|-----------------------------------------------------------------|-----------------------------------------------------------------|
B|-----------------0-------------------------------0---------------|-----------------0-------------------------------0---------------|
G|---------2---------------2---------------0---------------0-------|---------0---------------0---------------2---------------2-------|
D|-----2-------2-------2-------0-------2-------2-------2-------0---|-----4-------4-------4-------0-------2-------2-------2-------2---|
A|-0-------------------------------3-------------------------------|-5-------------------------------0-------------------------------|
E|-----------------------------------------------------------------|-----------------------------------------------------------------|

E|-----------------------------------------------------------------|-----------------------------------------------------------------|
B|-----------------0-------------------------------0---------------|-----------------0-------------------------------0---------------|
G|---------2---------------2---------------0---------------0-------|---------0---------------0---------------2---------------2-------|
D|-----2-------2-------2-------0-------2-------2-------2-------0---|-----4-------4-------4-------0-------2-------2-------2-------2---|
A|-0-------------------------------3-------------------------------|-5-------------------------------0-------------------------------|
E|-----------------------------------------------------------------|-----------------------------------------------------------------|

E|-----------------------------------------------------------------|-----------------------------------------------------------------|
B|-----------------0-------------------------------0---------------|-----------------0-------------------------------0---------------|
G|---------2---------------2---------------0---------------0-------|---------0---------------0---------------2---------------2-------|
D|-----2-------2-------2-------0-------2-------2-------2-------0---|-----4-------4-------4-------0-------2-------2-------2-------2---|
A|-0-------------------------------3-------------------------------|-5-------------------------------0-------------------------------|
E|-----------------------------------------------------------------|-----------------------------------------------------------------|

E|-----------------------------------------------------------------|-----------------------------------------------------------------|
B|-----------------0-------------------------------0---------------|-----------------0-------------------------------0---------------|
G|---------2---------------2---------------0---------------0-------|---------0---------------0---------------2---------------2-------|
D|-----2-------2-------2-------0-------2-------2-------2-------0---|-----4-------4-------4-------0-------2-------2-------2-------2---|
A|-0-------------------------------3-------------------------------|-5-------------------------------0-------------------------------|
E|-----------------------------------------------------------------|-----------------------------------------------------------------|

E|---------|---------|---------|---------|---------|---------|---------|---------|----------------------------------------------------|
B|---------|---------|---------|---------|---------|---------|---------|---------|-------------1---0------------------------3---3-----|
G|-%-------|-%-------|-%-------|-%-------|-%-------|-%-------|-%-------|-%-------|---------0-----------0----------------0-------------|
D|-%-------|-%-------|-%-------|-%-------|-%-------|-%-------|-%-------|-%-------|-----2-------------------2--------4-----------------|
A|---------|---------|---------|---------|---------|---------|---------|---------|-0----------------------------0---------------------|
E|---------|---------|---------|---------|---------|---------|---------|---------|----------------------------------------------------|

E|--------------------------------------------------------------|-0-------|---------|
B|-------------1---0--------------------------------------------|-0-------|---------|
G|---------0-----------0-------------------0---------------0----|-2-------|-%-------|
D|-----2-------------------2---0-------2-------0---0---3--------|-2-------|-%-------|
A|-0-------------------------------3----------------------------|-0-------|---------|
E|--------------------------------------------------------------|---------|---------|

E|---------|---------|---------|---------|---------|---------|---------|---------|---------|
B|---------|---------|---------|---------|---------|---------|---------|---------|---------|
G|-%-------|-%-------|-%-------|-%-------|-%-------|-%-------|-%-------|-%-------|-%-------|
D|-%-------|-%-------|-%-------|-%-------|-%-------|-%-------|-%-------|-%-------|-%-------|
A|---------|---------|---------|---------|---------|---------|---------|---------|---------|
E|---------|---------|---------|---------|---------|---------|---------|---------|---------|

E|---------|---------|---------|---------|---------|---------|---------------------0-------------------------0-----|
B|---------|---------|---------|---------|---------|---------|---------1---0---0-----------------1---0---0---------|
G|-%-------|-%-------|-%-------|-%-------|-%-------|-%-------|---------2-------------------------0-----------------|
D|-%-------|-%-------|-%-------|-%-------|-%-------|-%-------|-----2-------------------------2---------------------|
A|---------|---------|---------|---------|---------|---------|-0-------------------------3-------------------------|
E|---------|---------|---------|---------|---------|---------|-----------------------------------------------------|

E|---------------------0---------------------------|---------------------0-------------------------0-----|
B|-------------0---0-----------------1---0---0-----|---------1---0---0-----------------1---0---0---------|
G|---------5-------------------------2-------------|---------2-------------------------0-----------------|
D|-----4---5---------------------2-----------------|-----2-------------------------2---------------------|
A|-5-------------------------0---------------------|-0-------------------------3-------------------------|
E|-------------------------------------------------|-----------------------------------------------------|

E|---------------------0---------------------------|---------------------0-------------------------0-----|
B|-------------0---0-----------------1---0---0-----|---------1---0---0-----------------1---0---0---------|
G|---------5-------------------------2-------------|---------2-------------------------0-----------------|
D|-----4---5---------------------2-----------------|-----2-------------------------2---------------------|
A|-5-------------------------0---------------------|-0-------------------------3-------------------------|
E|-------------------------------------------------|-----------------------------------------------------|

E|---------------------0-----0------|-0------0---------------|---------|---------|---------|
B|---------1---0---0---------0------|-0------0---------------|---------|---------|---------|
G|---------0-----------------2------|-2------2----%-----%----|-%-------|-%-------|-%-------|
D|-----4---------------------2------|-2------2----%-----%----|-%-------|-%-------|-%-------|
A|-5-------------------------0------|-0------0---------------|---------|---------|---------|
E|----------------------------------|------------------------|---------|---------|---------|

E|---------|---------|---------|---------|---------|---------|---------|---------|---------|
B|---------|---------|---------|---------|---------|---------|---------|---------|---------|
G|-%-------|-%-------|-%-------|-%-------|-%-------|-%-------|-%-------|-%-------|-%-------|
D|-%-------|-%-------|-%-------|-%-------|-%-------|-%-------|-%-------|-%-------|-%-------|
A|---------|---------|---------|---------|---------|---------|---------|---------|---------|
E|---------|---------|---------|---------|---------|---------|---------|---------|---------|

E|---------|---------|---------|---------|---------|---------|---------|---------|---------|
B|---------|---------|---------|---------|---------|---------|---------|---------|---------|
G|-%-------|-%-------|-%-------|-%-------|-%-------|-%-------|-%-------|-%-------|-%-------|
D|-%-------|-%-------|-%-------|-%-------|-%-------|-%-------|-%-------|-%-------|-%-------|
A|---------|---------|---------|---------|---------|---------|---------|---------|---------|
E|---------|---------|---------|---------|---------|---------|---------|---------|---------|

E|---------|---------|---------|---------|---------|---------|---------|---------|---------|
B|---------|---------|---------|---------|---------|---------|---------|---------|---------|
G|-%-------|-%-------|-%-------|-%-------|-%-------|-%-------|-%-------|-%-------|-%-------|
D|-%-------|-%-------|-%-------|-%-------|-%-------|-%-------|-%-------|-%-------|-%-------|
A|---------|---------|---------|---------|---------|---------|---------|---------|---------|
E|---------|---------|---------|---------|---------|---------|---------|---------|---------|

E|---------|---------|---------|---------|---------|---------|---------|---------|---------|
B|---------|---------|---------|---------|---------|---------|---------|---------|---------|
G|-%-------|-%-------|-%-------|-%-------|-%-------|-%-------|-%-------|-%-------|-%-------|
D|-%-------|-%-------|-%-------|-%-------|-%-------|-%-------|-%-------|-%-------|-%-------|
A|---------|---------|---------|---------|---------|---------|---------|---------|---------|
E|---------|---------|---------|---------|---------|---------|---------|---------|---------|

E|--------|---------------------0-------------------------0-----|---------------------0---------------------------|
B|--------|---------1---0---0-----------------1---0---0---------|-------------0---0-----------------1---0---0-----|
G|-%------|---------2-------------------------0-----------------|---------5-------------------------2-------------|
D|-%------|-----2-------------------------2---------------------|-----4---5---------------------2-----------------|
A|--------|-0-------------------------3-------------------------|-5-------------------------0---------------------|
E|--------|-----------------------------------------------------|-------------------------------------------------|

E|---------------------0-------------------------0-----|---------------------0---------------------------|
B|---------1---0---0-----------------1---0---0---------|-------------0---0-----------------1---0---0-----|
G|---------2-------------------------0-----------------|---------5-------------------------2-------------|
D|-----2-------------------------2---------------------|-----4---5---------------------2-----------------|
A|-0-------------------------3-------------------------|-5-------------------------0---------------------|
E|-----------------------------------------------------|-------------------------------------------------|

E|---------------------0-------------------------------|---------------------0---------------------0-----|
B|---------1---0---0-----------------1---0---0---3-----|---------1---0---0-------------------------0-----|
G|---------2-------------------------0-----------------|---------0-------------------------2-------2-----|
D|-----2-------------------------2---------------------|-----4-------------------------2-------2---2-----|
A|-0-------------------------3-------------------------|-5-------------------------0---------------0-----|
E|-----------------------------------------------------|-------------------------------------------------|

E|-0------0------|
B|-0------0------|
G|-2------2------|
D|-2------2------|
A|-0------0------|
E|---------------|
Iron Maiden - 2 AM
Iron Maiden - 2 AM.gp3