Iron Maiden - 22 Acacia Avenue

Iron Maiden



Title: 22 Acacia Avenue
Album: The Number Of The Beast
Artist: Iron Maiden
Author: Music by Iron Maiden, Lyrics by Steve Harris

Track 1: Dave (Guitar 1)
E|---------|---------|---------|------------------------|------------------------|---------|
B|---------|---------|---------|------------------------|------------------------|---------|
G|-%-------|-%-------|-%-------|-%------%-----%----2----|-4----%----%-----%------|-%-------|
D|-%-------|-%-------|-%-------|-%------%-----%----0----|-2----%----%-----%------|-%-------|
A|---------|---------|---------|------------------------|------------------------|---------|
E|---------|---------|---------|------------------------|------------------------|---------|

E|------------------------|--------------------------------|------------------------|
B|------------------------|------------3-----3-----3---3---|------------------------|
G|-2----%----%-----%------|-%-----%----2-----2-----2---2---|-4----%----%-----%------|
D|-0----%----%-----%------|-%-----%----0-----0-----0---0---|-2----%----%-----%------|
A|------------------------|--------------------------------|------------------------|
E|------------------------|--------------------------------|------------------------|

E|---------|------------------------|----------------------------|------------------------|
B|---------|------------------------|--------3-----3-----3---3---|------------------------|
G|-%-------|-2----%----%-----%------|-%------2-----2-----2---2---|------%----%-----%------|
D|-%-------|-0----%----%-----%------|-%------0-----0-----0---0---|-5----%----%-----%------|
A|---------|------------------------|----------------------------|-3----------------------|
E|---------|------------------------|----------------------------|------------------------|

E|---------------------------|------------------------|----------------------------|
B|-------------3-------------|------------------------|----------------------------|
G|-%------%----2-----4---4---|-4----%----%-----%------|-%--------------------------|
D|-%------%----0-----2---2---|-2----%----%-----%------|-%------2----1----0----5----|
A|---------------------------|------------------------|-----------------------3----|
E|---------------------------|------------------------|----------------------------|

E|-----------------------------------------|-----------------------------------------|
B|-----------------------------------------|-----------------------------------------|
G|------------------------------------2----|-2----2--------------2----2----2----4----|
D|-5----5--------------5----5----5----0----|-0----0----0----0----0----0----0----2----|
A|-3----3----3----3----3----3----3---------|-----------------------------------------|
E|-----------------------------------------|-----------------------------------------|

E|-----------------------------------------|-3----0------0----------|-----------------------------------------|
B|-3----------------------------------0----|------------------------|-----------------------------------------|
G|-4----4----4----4----4----4----4---------|------------------------|------------------------------------2----|
D|-2----2----2----2----2----2----2---------|-------------------5----|-5----5--------------5----5----5----0----|
A|-----------------------------------------|-------------------3----|-3----3----3----3----3----3----3---------|
E|-----------------------------------------|------------------------|-----------------------------------------|

E|-----------------------------------------|---------------|-------------------|-----------------------------------------|
B|-----------------------------------------|---------------|------0------------|-----------------------------------------|
G|-2----2--------------2----2----2----0----|-0-------------|-0-----------------|------------------------------------2----|
D|-0----0----0----0----0----0----0----2----|-2------4------|--------------5----|-5----5--------------5----5----5----0----|
A|-----------------------------------------|---------------|--------------3----|-3----3----3----3----3----3----3---------|
E|-----------------------------------------|---------------|-------------------|-----------------------------------------|

E|-----------------------------------------|-----------------------------------------|
B|-----------------------------------------|------------------------------------0----|
G|-2----2--------------2----2----2----4----|-4----4--------------4-------------------|
D|-0----0----0----0----0----0----0----2----|-2----2----2----2----2----2----2---------|
A|-----------------------------------------|-----------------------------------------|
E|-----------------------------------------|-----------------------------------------|

E|-3----0------0----------|-----------------------------------------|-----------------------------------------|
B|------------------------|-----------------------------------------|-----------------------------------------|
G|------------------------|------------------------------------2----|-2----2--------------2----2----2----4----|
D|-------------------5----|-5----5--------------5----5----5----0----|-0----0----0----0----0----0----0----2----|
A|-------------------3----|-3----3----3----3----3----3----3---------|-----------------------------------------|
E|------------------------|-----------------------------------------|-----------------------------------------|

E|---------------|-------------------|-----------------------------------------|-----------------------------------------|
B|---------------|------0------------|-----------------------------------------|-----------------------------------------|
G|-4-------------|-0-----------------|------------------------------------2----|-2----2--------------2----2----2----2----|
D|-2------4------|--------------5----|-5----5--------------5----5----5----0----|-0----0----0----0----0----0----0----0----|
A|---------------|--------------3----|-3----3----3----3----3----3----3---------|-----------------------------------------|
E|---------------|-------------------|-----------------------------------------|-----------------------------------------|

E|------------------------|---------|---------|---------|-0---0------------------------|
B|------------------------|---------|---------|---------|-0---0------------------------|
G|-4----%----%-----%------|-%-------|-%-------|-%-------|---------%---%---%-----%------|
D|-2----%----%-----%------|-%-------|-%-------|-%-------|-2---2---%---%---%-----%------|
A|------------------------|---------|---------|---------|------------------------------|
E|------------------------|---------|---------|---------|------------------------------|

E|---------|---------|----------------------------|------------------------|---------|
B|---------|-3-------|-3------3-----3-----3---3---|------------------------|---------|
G|-%-------|-2-------|-2------2-----2-----2---2---|-4----%----%-----%------|-%-------|
D|-%-------|-0-------|-0------0-----0-----0---0---|-2----%----%-----%------|-%-------|
A|---------|---------|----------------------------|------------------------|---------|
E|---------|---------|----------------------------|------------------------|---------|

E|---------|----------------------------|------------------------|---------------------------|
B|-3-------|-3------3-----3-----3---3---|------------------------|-------------3-------------|
G|-2-------|-2------2-----2-----2---2---|------%----%-----%------|-%------%----2-----4---4---|
D|-0-------|-0------0-----0-----0---0---|-5----%----%-----%------|-%------%----0-----2---2---|
A|---------|----------------------------|-3----------------------|---------------------------|
E|---------|----------------------------|------------------------|---------------------------|

E|------------------------|----------------------------|-----------------------------------------|
B|------------------------|----------------------------|-----------------------------------------|
G|-4----%----%-----%------|-%--------------------------|------------------------------------2----|
D|-2----%----%-----%------|-%------2----1----0----5----|-5----5--------------5----5----5----0----|
A|------------------------|-----------------------3----|-3----3----3----3----3----3----3---------|
E|------------------------|----------------------------|-----------------------------------------|

E|-----------------------------------------|-----------------------------------------|
B|-----------------------------------------|------------------------------------0----|
G|-2----2--------------2----2----2----4----|-4----4--------------4-------------------|
D|-0----0----0----0----0----0----0----2----|-2----2----2----2----2----2----2---------|
A|-----------------------------------------|-----------------------------------------|
E|-----------------------------------------|-----------------------------------------|

E|-3----0------------|-----------------------------------------|-----------------------------------------|
B|-------------------|-----------------------------------------|-----------------------------------------|
G|-------------------|------------------------------------2----|-2----2--------------2----2----2----4----|
D|--------------5----|-5----5--------------5----5----5----0----|-0----0----0----0----0----0----0----2----|
A|--------------3----|-3----3----3----3----3----3----3---------|-----------------------------------------|
E|-------------------|-----------------------------------------|-----------------------------------------|

E|---------------|-------------------|-----------------------------------------|-----------------------------------------|
B|---------------|------0------------|-----------------------------------------|-----------------------------------------|
G|-4-------------|-0-----------------|------------------------------------2----|-2----2--------------2----2----2----4----|
D|-2------4------|--------------5----|-5----5--------------5----5----5----0----|-0----0----0----0----0----0----0----2----|
A|---------------|--------------3----|-3----3----3----3----3----3----3---------|-----------------------------------------|
E|---------------|-------------------|-----------------------------------------|-----------------------------------------|

E|-----------------------------------------|-3----0------------|-----------------------------------------|
B|------------------------------------0----|-------------------|-----------------------------------------|
G|-4----4--------------4-------------------|-------------------|------------------------------------2----|
D|-2----2----2----2----2----2----2---------|--------------5----|-5----5--------------5----5----5----0----|
A|-----------------------------------------|--------------3----|-3----3----3----3----3----3----3---------|
E|-----------------------------------------|-------------------|-----------------------------------------|

E|-----------------------------------------|---------------|-------------------|-----------------------------------------|
B|-----------------------------------------|---------------|------0------------|-----------------------------------------|
G|-2----2--------------2----2----2----4----|-4-------------|-0-----------------|------------------------------------2----|
D|-0----0----0----0----0----0----0----2----|-2------4------|--------------5----|-5----5--------------5----5----5----0----|
A|-----------------------------------------|---------------|--------------3----|-3----3----3----3----3----3----3---------|
E|-----------------------------------------|---------------|-------------------|-----------------------------------------|

E|-----------------------------------------|---------|---------|-0-------------|----------------------------------------------------|
B|-----------------------------------------|---------|---------|---------------|----------------------------------------------------|
G|-2----2--------------2----2----2----2----|-4-------|-4-------|-4-------------|----------------------------------------------------|
D|-0----0----0----0----0----0----0----0----|-2-------|-2-------|-2-------------|----------------------------------------------5-----|
A|-----------------------------------------|---------|---------|---------------|----------------5---------7-------------------------|
E|-----------------------------------------|---------|---------|---------12----|-0----0----0---------0---------0----0----0----------|

E|-------------------------------------------------------------|----------------------------------------------------|
B|-------------------------------------------------------------|----------------------------------------------------|
G|-------------------------------------------------------------|----------------------------------------------------|
D|----------------------------------------------7----5---------|----------------------------------------------5-----|
A|----------------5---------7-----------------------------7----|----------------5---------7-------------------------|
E|-0----0----0---------0---------0----0----0-------------------|-0----0----0---------0---------0----0----0----------|

E|-------------------------------------------------------------|----------------------------------------------------|
B|-------------------------------------------------------------|----------------------------------------------------|
G|-------------------------------------------------------------|----------------------------------------------------|
D|----------------------------------------------7----5---------|----------------------------------------------5-----|
A|----------------5---------7-----------------------------7----|----------------5---------7-------------------------|
E|-0----0----0---------0---------0----0----0-------------------|-0----0----0---------0---------0----0----0----------|

E|-------------------------------------------------------------|----------------------------------------------------|
B|-------------------------------------------------------------|----------------------------------------------------|
G|-------------------------------------------------------------|----------------------------------------------------|
D|----------------------------------------------7----5---------|----------------------------------------------5-----|
A|----------------5---------7-----------------------------7----|----------------5---------7-------------------------|
E|-0----0----0---------0---------0----0----0-------------------|-0----0----0---------0---------0----0----0----------|

E|-------------------------------------------------------------|-------------------------------------------------------------|
B|-------------------------------------------------------------|-------------------------------------------------------------|
G|-------------------------------------------------------------|-------------------------------------------------------------|
D|------------------------------------7----7----7----5---------|----------------5----5----5----4----4----4----5----5----5----|
A|----------------5---------7-----------------------------7----|-3----3----3-------------------------------------------------|
E|-0----0----0---------0---------0-----------------------------|-------------------------------------------------------------|

E|-------------------------------------------------------------|----------------------------------------------------|
B|-------------------------------------------------------------|----------------------------------------------------|
G|-------------------------------------------------------------|----------------------------------------------------|
D|----------------5----5----5----4----4----4----5----5----5----|----------------------------------------------5-----|
A|-3----3----3-------------------------------------------------|----------------5---------7-------------------------|
E|-------------------------------------------------------------|-0----0----0---------0---------0----0----0----------|

E|-------------------------------------------------------------|----------------------------------------------------|
B|-------------------------------------------------------------|----------------------------------------------------|
G|-------------------------------------------------------------|----------------------------------------------------|
D|----------------------------------------------7----5---------|----------------------------------------------5-----|
A|----------------5---------7-----------------------------7----|----------------5---------7-------------------------|
E|-0----0----0---------0---------0----0----0-------------------|-0----0----0---------0---------0----0----0----------|

E|-------------------------------------------------------------|----------------------------------------------------|
B|-------------------------------------------------------------|----------------------------------------------------|
G|-------------------------------------------------------------|----------------------------------------------------|
D|----------------------------------------------7----5---------|----------------------------------------------5-----|
A|----------------5---------7-----------------------------7----|----------------5---------7-------------------------|
E|-0----0----0---------0---------0----0----0-------------------|-0----0----0---------0---------0----0----0----------|

E|-------------------------------------------------------------|-------------------------------------------------------------|
B|-------------------------------------------------------------|-------------------------------------------------------------|
G|-------------------------------------------------------------|-------------------------------------------------------------|
D|------------------------------------7----7----7----5---------|----------------5----5----5----4----4----4----5----5----5----|
A|----------------5---------7-----------------------------7----|-3----3----3-------------------------------------------------|
E|-0----0----0---------0---------0-----------------------------|-------------------------------------------------------------|

E|-------------------------------------------------------------|----------------------------------------------------|
B|-------------------------------------------------------------|----------------------------------------------------|
G|-------------------------------------------------------------|----------------------------------------------------|
D|----------------5----5----5----4----4----4----5----5----5----|----------------------------------------------5-----|
A|-3----3----3-------------------------------------------------|----------------5---------7-------------------------|
E|-------------------------------------------------------------|-0----0----0---------0---------0----0----0----------|

E|-------------------------------------------------------------|---------|---------|
B|-------------------------------------------------------------|---------|-3-------|
G|-------------------------------------------------------------|---------|-2-------|
D|----------------------------------------------7----5---------|-5-------|-0-------|
A|----------------5---------7-----------------------------7----|-3-------|---------|
E|-0----0----0---------0---------0----0----0-------------------|---------|---------|

E|---------|---------|---------|---------|-------------------------------------------------------------|
B|---------|---------|---------|-3-------|-3----3------------------------------------------------------|
G|---------|---------|---------|-2-------|-2----2----4-------------------------------------------------|
D|-4-------|-5-------|-5-------|-0-------|-0----0----2----2----2----2----2----2----2----2----2----2----|
A|-2-------|-3-------|-3-------|---------|-------------------------------------------------------------|
E|---------|---------|---------|---------|-------------------------------------------------------------|

E|-------------------------------------------------------------|---------|---------|
B|-3----3------------------------------------------------------|---------|-3-------|
G|-2----2----4-------------------------------------------------|---------|-2-------|
D|-0----0----2----2----2----2----2----2----2----2----2----2----|-5-------|-0-------|
A|-------------------------------------------------------------|-3-------|---------|
E|-------------------------------------------------------------|---------|---------|

E|---------|---------|---------|---------|----------------------------------------------------|
B|---------|---------|---------|-3-------|----------------------------------------------------|
G|---------|---------|---------|-2-------|----------------------------------------------------|
D|-4-------|-5-------|-5-------|-0-------|----------------------------------------------5-----|
A|-2-------|-3-------|-3-------|---------|----------------5---------7-------------------------|
E|---------|---------|---------|---------|-0----0----0---------0---------0----0----0----------|

E|-------------------------------------------------------------|----------------------------------------------------|
B|-------------------------------------------------------------|----------------------------------------------------|
G|-------------------------------------------------------------|----------------------------------------------------|
D|----------------------------------------------7----5---------|----------------------------------------------5-----|
A|----------------5---------7-----------------------------7----|----------------5---------7-------------------------|
E|-0----0----0---------0---------0----0----0-------------------|-0----0----0---------0---------0----0----0----------|

E|-------------------------------------------------------------|----------------------------------------------------|
B|-------------------------------------------------------------|----------------------------------------------------|
G|-------------------------------------------------------------|----------------------------------------------------|
D|----------------------------------------------7----5---------|----------------------------------------------5-----|
A|----------------5---------7-----------------------------7----|----------------5---------7-------------------------|
E|-0----0----0---------0---------0----0----0-------------------|-0----0----0---------0---------0----0----0----------|

E|-------------------------------------------------------------|-------------------------------------------------------------|
B|-------------------------------------------------------------|-------------------------------------------------------------|
G|-------------------------------------------------------------|-------------------------------------------------------------|
D|------------------------------------7----7----7----5---------|----------------5----5----5----4----4----4----5----5----5----|
A|----------------5---------7-----------------------------7----|-3----3----3-------------------------------------------------|
E|-0----0----0---------0---------0-----------------------------|-------------------------------------------------------------|

E|-------------------------------------------------------------|----------------------------------------------------|
B|-------------------------------------------------------------|----------------------------------------------------|
G|-------------------------------------------------------------|----------------------------------------------------|
D|----------------5----5----5----4----4----4----5----5----5----|----------------------------------------------5-----|
A|-3----3----3-------------------------------------------------|----------------5---------7-------------------------|
E|-------------------------------------------------------------|-0----0----0---------0---------0----0----0----------|

E|-------------------------------------------------------------|----------------------------------------------------|
B|-------------------------------------------------------------|----------------------------------------------------|
G|-------------------------------------------------------------|----------------------------------------------------|
D|----------------------------------------------7----5---------|----------------------------------------------5-----|
A|----------------5---------7-----------------------------7----|----------------5---------7-------------------------|
E|-0----0----0---------0---------0----0----0-------------------|-0----0----0---------0---------0----0----0----------|

E|-------------------------------------------------------------|----------------------------------------------------|
B|-------------------------------------------------------------|----------------------------------------------------|
G|-------------------------------------------------------------|----------------------------------------------------|
D|----------------------------------------------7----5---------|----------------------------------------------5-----|
A|----------------5---------7-----------------------------7----|----------------5---------7-------------------------|
E|-0----0----0---------0---------0----0----0-------------------|-0----0----0---------0---------0----0----0----------|

E|-------------------------------------------------------------|-------------------------------------------------------------|
B|-------------------------------------------------------------|-------------------------------------------------------------|
G|-------------------------------------------------------------|-------------------------------------------------------------|
D|------------------------------------7----7----7----5---------|----------------5----5----5----4----4----4----5----5----5----|
A|----------------5---------7-----------------------------7----|-3----3----3-------------------------------------------------|
E|-0----0----0---------0---------0-----------------------------|-------------------------------------------------------------|

E|-------------------------------------------------------------|----------------------------------------------------|
B|-------------------------------------------------------------|----------------------------------------------------|
G|-------------------------------------------------------------|----------------------------------------------------|
D|----------------5----5----5----4----4----4----5----5----5----|----------------------------------------------5-----|
A|-3----3----3-------------------------------------------------|----------------5---------7-------------------------|
E|-------------------------------------------------------------|-0----0----0---------0---------0----0----0----------|

E|-------------------------------------------------------------|---------|---------|
B|-------------------------------------------------------------|---------|-3-------|
G|-------------------------------------------------------------|---------|-2-------|
D|----------------------------------------------7----5---------|-5-------|-0-------|
A|----------------5---------7-----------------------------7----|-3-------|---------|
E|-0----0----0---------0---------0----0----0-------------------|---------|---------|

E|---------|---------|---------|---------|-------------------------------------------------------------|
B|---------|---------|---------|-3-------|-3----3------------------------------------------------------|
G|---------|---------|---------|-2-------|-2----2----4-------------------------------------------------|
D|-4-------|-5-------|-5-------|-0-------|-0----0----2----2----2----2----2----2----2----2----2----2----|
A|-2-------|-3-------|-3-------|---------|-------------------------------------------------------------|
E|---------|---------|---------|---------|-------------------------------------------------------------|

E|-------------------------------------------------------------|---------|---------|
B|-3----3------------------------------------------------------|---------|-3-------|
G|-2----2----4-------------------------------------------------|---------|-2-------|
D|-0----0----2----2----2----2----2----2----2----2----2----2----|-5-------|-0-------|
A|-------------------------------------------------------------|-3-------|---------|
E|-------------------------------------------------------------|---------|---------|

E|---------|---------|---------|---------|-------------------------------------------------------------|
B|---------|---------|---------|-3-------|-------------------------------------------------------------|
G|---------|---------|---------|-2-------|-------------------------------------------------------------|
D|-4-------|-5-------|-5-------|-0-------|----------------4-----------------------------4--------------|
A|-2-------|-3-------|-3-------|---------|-2----2----2----2----2----2----2----2----2----2----2----2----|
E|---------|---------|---------|---------|-------------------------------------------------------------|

E|-------------------------------------------------------------|-------------------------------------------------------------|
B|-------------------------------------------------------------|-3----3------------------------------------------------------|
G|-5----4----2----4----2---------2-----------------------------|-2----2----4-------------------------------------------------|
D|--------------------------5---------5----4----5----4----2----|-0----0----2----2----2----2----2----2----2----2----2----2----|
A|-------------------------------------------------------------|-------------------------------------------------------------|
E|-------------------------------------------------------------|-------------------------------------------------------------|

E|-------------------------------------------------------------|-------------------------------------------------------------|
B|-3----3------------------------------------------------------|-3----3------------------------------------------------------|
G|-2----2----4-------------------------------------------------|-2----2----4-------------------------------------------------|
D|-0----0----2----2----2----2----2----2----2----2----2----2----|-0----0----2----2----2----2----2----2----2----2----2----2----|
A|-------------------------------------------------------------|-------------------------------------------------------------|
E|-------------------------------------------------------------|-------------------------------------------------------------|

E|-3----3----3----2----2----2----3----3----3----2----2----2----|-------------------------------------------------------------|
B|-3----3----3----3----3----3----3----3----3----3----3----3----|-3----3------------------------------------------------------|
G|-2----2----2----2----2----2----2----2----2----2----2----2----|-2----2----4-------------------------------------------------|
D|-0----0----0----0----0----0----0----0----0----0----0----0----|-0----0----2----2----2----2----2----2----2----2----2----2----|
A|-------------------------------------------------------------|-------------------------------------------------------------|
E|-------------------------------------------------------------|-------------------------------------------------------------|

E|-------------------------------------------------------------|-------------------------------------------------------------|
B|-3----3------------------------------------------------------|-3----3------------------------------------------------------|
G|-2----2----4-------------------------------------------------|-2----2----4-------------------------------------------------|
D|-0----0----2----2----2----2----2----2----2----2----2----2----|-0----0----2----2----2----2----2----2----2----2----2----2----|
A|-------------------------------------------------------------|-------------------------------------------------------------|
E|-------------------------------------------------------------|-------------------------------------------------------------|

E|-3----3----3----2----2----2----3----3----3----2----2----2----|-------------------------------------------------------------|
B|-3----3----3----3----3----3----3----3----3----3----3----3----|-3----3------------------------------------------------------|
G|-2----2----2----2----2----2----2----2----2----2----2----2----|-2----2----4-------------------------------------------------|
D|-0----0----0----0----0----0----0----0----0----0----0----0----|-0----0----2----2----2----2----2----2----2----2----2----2----|
A|-------------------------------------------------------------|-------------------------------------------------------------|
E|-------------------------------------------------------------|-------------------------------------------------------------|

E|-------------------------------------------------------------|-------------------------------------------------------------|
B|-3----3------------------------------------------------------|-3----3------------------------------------------------------|
G|-2----2----4-------------------------------------------------|-2----2----4-------------------------------------------------|
D|-0----0----2----2----2----2----2----2----2----2----2----2----|-0----0----2----2----2----2----2----2----2----2----2----2----|
A|-------------------------------------------------------------|-------------------------------------------------------------|
E|-------------------------------------------------------------|-------------------------------------------------------------|

E|-3----3----3----2----2----2----3----3----3----2----2----2----|-------------------------------------------------------------|
B|-3----3----3----3----3----3----3----3----3----3----3----3----|-3----3------------------------------------------------------|
G|-2----2----2----2----2----2----2----2----2----2----2----2----|-2----2----4-------------------------------------------------|
D|-0----0----0----0----0----0----0----0----0----0----0----0----|-0----0----2----2----2----2----2----2----2----2----2----2----|
A|-------------------------------------------------------------|-------------------------------------------------------------|
E|-------------------------------------------------------------|-------------------------------------------------------------|

E|-------------------------------------------------------------|-------------------------------------------------------------|
B|-3----3------------------------------------------------------|-3----3------------------------------------------------------|
G|-2----2----4-------------------------------------------------|-2----2----4-------------------------------------------------|
D|-0----0----2----2----2----2----2----2----2----2----2----2----|-0----0----2----2----2----2----2----2----2----2----2----2----|
A|-------------------------------------------------------------|-------------------------------------------------------------|
E|-------------------------------------------------------------|-------------------------------------------------------------|

E|-3----3----3----2----2----2----3----3----3----2----2----2----|-----------------------------------|
B|-3----3----3----3----3----3----3----3----3----3----3----3----|-----------------------------------|
G|-2----2----2----2----2----2----2----2----2----2----2----2----|-----------------------------------|
D|-0----0----0----0----0----0----0----0----0----0----0----0----|-9------3----2---0-----------------|
A|-------------------------------------------------------------|-7-------------------3---2---------|
E|-------------------------------------------------------------|------------------------------3----|

E|-------------------------------|-----------------------------------------------------------|
B|-10-----8---10--8--------------|-----------------------------------------15---15---15--12--|
G|--------------------9----9-----|-------------------------12--14--14--12--------------------|
D|-------------------------------|-----------------12--14------------------------------------|
A|-------------------------------|-----10--12--14--------------------------------------------|
E|-------------------------------|-12--------------------------------------------------------|

E|-------------------|-----------------------------------------------------------------|
B|-15------15---13---|-12----12---10--12--10--8---10--8---7---8---7--------------------|
G|-------------------|------------------------------------------------9---11--9---7----|
D|-------------------|-----------------------------------------------------------------|
A|-------------------|-----------------------------------------------------------------|
E|-------------------|-----------------------------------------------------------------|

E|--------------------------------------------|--------------------------10--12--|-14----14---12---------12--15--14------|
B|------------7----5--------------------------|----------------10---10-----------|-----------------15----------------15--|
G|-7-----7--------------7----7----5---7---5---|-4------7---9---------------------|---------------------------------------|
D|--------------------------------------------|----------------------------------|---------------------------------------|
A|--------------------------------------------|----------------------------------|---------------------------------------|
E|--------------------------------------------|----------------------------------|---------------------------------------|

E|-12--------------------------------------------------|----------------------------------------|
B|-----15----------------------------------------15----|-12-------------7-----------7---8---10--|
G|---------14--14--12--14--12------------12------------|--------7---9-------7---9---------------|
D|-----------------------------14---14-------14--------|----------------------------------------|
A|-----------------------------------------------------|----------------------------------------|
E|-----------------------------------------------------|----------------------------------------|

E|---------------------------------------------12------12--14--12--|-14--15--14--15--17---17--15--17----17---14---|
B|-8---10--12--10--12--13--12--13--15--13--15------15--------------|----------------------------------------------|
G|-----------------------------------------------------------------|----------------------------------------------|
D|-----------------------------------------------------------------|----------------------------------------------|
A|-----------------------------------------------------------------|----------------------------------------------|
E|-----------------------------------------------------------------|----------------------------------------------|

E|-12--14--12--------------------------------|-14------|-14------|-14------|-14------|
B|-------------13---13----15----15---13--12--|---------|---------|---------|---------|
G|-------------------------------------------|---------|---------|---------|---------|
D|-------------------------------------------|---------|---------|---------|---------|
A|-------------------------------------------|---------|---------|---------|---------|
E|-------------------------------------------|---------|---------|---------|---------|

E|----------------------------------------------------|-------------------------------------------------------------|
B|----------------------------------------------------|-------------------------------------------------------------|
G|----------------------------------------------------|-------------------------------------------------------------|
D|----------------------------------------------5-----|----------------------------------------------7----5---------|
A|----------------5---------7-------------------------|----------------5---------7-----------------------------7----|
E|-0----0----0---------0---------0----0----0----------|-0----0----0---------0---------0----0----0-------------------|

E|----------------------------------------------------|-------------------------------------------------------------|
B|----------------------------------------------------|-------------------------------------------------------------|
G|----------------------------------------------------|-------------------------------------------------------------|
D|----------------------------------------------5-----|----------------------------------------------7----5---------|
A|----------------5---------7-------------------------|----------------5---------7-----------------------------7----|
E|-0----0----0---------0---------0----0----0----------|-0----0----0---------0---------0----0----0-------------------|

E|----------------------------------------------------|-------------------------------------------------------------|
B|----------------------------------------------------|-------------------------------------------------------------|
G|----------------------------------------------------|-------------------------------------------------------------|
D|----------------------------------------------5-----|----------------------------------------------7----5---------|
A|----------------5---------7-------------------------|----------------5---------7-----------------------------7----|
E|-0----0----0---------0---------0----0----0----------|-0----0----0---------0---------0----0----0-------------------|

E|----------------------------------------------------|-------------------------------------------------------------|
B|----------------------------------------------------|-------------------------------------------------------------|
G|----------------------------------------------------|-------------------------------------------------------------|
D|----------------------------------------------5-----|--------------------------7----7----5---------5--------------|
A|----------------5---------7-------------------------|----------------5------------------------7---------7----5----|
E|-0----0----0---------0---------0----0----0----------|-0----0----0---------0---------------------------------------|

E|---------|--------12---10--------10-------------|-10----10----10----10----10----10--------|
B|---------|------------------12--------12---10---|------------------------------------12---|
G|-9-------|-9------------------------------------|-----------------------------------------|
D|---------|--------------------------------------|-----------------------------------------|
A|---------|--------------------------------------|-----------------------------------------|
E|---------|--------------------------------------|-----------------------------------------|

E|-10------10--------10---|-12---14---10---12--------10---------------------------------|
B|------------------------|---------------------12--------10---10---12---10-------------|
G|--------------%---------|---------------------------------------------------12--------|
D|--------------%---------|--------------------------------------------------------14---|
A|------------------------|-------------------------------------------------------------|
E|------------------------|-------------------------------------------------------------|

E|-------------------------------------------|-------------------------------------------|
B|-------------------------------------------|-------------------------------------10----|
G|-12----------------------------------------|--------------------------9----12----------|
D|-------14---12-----------------------------|----------------9----12--------------------|
A|-----------------14---13---12--------------|------10---12------------------------------|
E|--------------------------------15---15----|-12----------------------------------------|

E|----------------------------------------------------|-12--10----------12--10----------12--10----------12--10----------|
B|-12---13---10---12---10--------10----10---10---12---|---------12--10----------12--10----------12--10----------12--10--|
G|--------------------------12------------------------|-----------------------------------------------------------------|
D|----------------------------------------------------|-----------------------------------------------------------------|
A|----------------------------------------------------|-----------------------------------------------------------------|
E|----------------------------------------------------|-----------------------------------------------------------------|

E|-12--10----------12----10-----|-10---12---15---12---10--------10---12---14---12---10--------|
B|---------12--10---------------|--------------------------12----------------------------12---|
G|------------------------------|-------------------------------------------------------------|
D|------------------------------|-------------------------------------------------------------|
A|------------------------------|-------------------------------------------------------------|
E|------------------------------|-------------------------------------------------------------|

E|-10---12---15---12---10---12---10---12---17---12---10--------|-10---12---14---12---10--------10---12---14---12---10--------|
B|--------------------------------------------------------12---|--------------------------12----------------------------12---|
G|-------------------------------------------------------------|-------------------------------------------------------------|
D|-------------------------------------------------------------|-------------------------------------------------------------|
A|-------------------------------------------------------------|-------------------------------------------------------------|
E|-------------------------------------------------------------|-------------------------------------------------------------|

E|-10---10---10---10-----10---10---17---|-17---17---17---17---15---15---15---14---14---14---12---12---|
B|--------------------------------------|-------------------------------------------------------------|
G|--------------------------------------|-------------------------------------------------------------|
D|--------------------------------------|-------------------------------------------------------------|
A|--------------------------------------|-------------------------------------------------------------|
E|--------------------------------------|-------------------------------------------------------------|

E|-12---10---10---10---8----8----8----7----7----7-----|-7------------------------|------------------------|
B|----------------------------------------------------|-------10----10----10-----|------10----------------|
G|----------------------------------------------------|--------------------------|-12--------12---12------|
D|----------------------------------------------------|--------------------------|------------------------|
A|----------------------------------------------------|--------------------------|------------------------|
E|----------------------------------------------------|--------------------------|------------------------|

E|-------------------------------------------------------------|-------------------------------------------------------------|
B|-------------------------------------------------------------|-------------------------------------------------------------|
G|------9----9----9----9----9---------9----9----9----9----9----|------9----9----9----9----9---------9----9----9----9----9----|
D|-12----------------------------10----------------------------|-12----------------------------10----------------------------|
A|-------------------------------------------------------------|-------------------------------------------------------------|
E|-------------------------------------------------------------|-------------------------------------------------------------|

E|-------------------------------------------------------------|-------------------------------------------------------------|
B|-8----8----8----8----8----8----10---10---10---10---10---10---|-8----8----8----8----8----8----10---10---10---10---10---10---|
G|-9----9----9----9----9----9----9----9----9----9----9----9----|-9----9----9----9----9----9----9----9----9----9----9----9----|
D|-------------------------------------------------------------|-------------------------------------------------------------|
A|-------------------------------------------------------------|-------------------------------------------------------------|
E|-------------------------------------------------------------|-------------------------------------------------------------|

E|-------------------------------------------------------------|-------------------------------------------------------------|
B|-8----8----8----8----8----8----7----7----7----7----7----7----|-------------------------------------------------------------|
G|-9----9----9----9----9----9----9----9----9----9----9----9----|-9----9----9----9----9----9----9----9----9----9----9----9----|
D|-------------------------------------------------------------|-------------------------------12---12---12---12---12---12---|
A|-------------------------------------------------------------|-------------------------------------------------------------|
E|-------------------------------------------------------------|-------------------------------------------------------------|

E|-------------------------------------------------------------------------------|---------|
B|-------------------------------------------------------------------------------|---------|
G|-7---9---7---9---7---9---7---9---7---9---7---9---9----7------------------------|---------|
D|-----------------------------------------------------------9----7----7----7----|-7-------|
A|-------------------------------------------------------------------------------|---------|
E|-------------------------------------------------------------------------------|---------|

E|-------------------------------------------------------------|----------------------------------------|
B|-8---------8-------------------10--------10------------------|-8-----10----10---------10--------------|
G|-9----%----9----%----9----9----9----%----9----%----9----9----|-9-----------------12--------12---12----|
D|------%---------%----9----9---------%---------%----9----9----|----------------------------------------|
A|-------------------------------------------------------------|----------------------------------------|
E|-------------------------------------------------------------|----------------------------------------|

E|-------------------------------------------------------------|-----------12---10---10---10---10-----|
B|-8---------8-------------------10--------10------------------|-10---12------------------------------|
G|-9----%----9----%----9----9----9----%----9----%----9----9----|--------------------------------------|
D|------%---------%----9----9---------%---------%----9----9----|--------------------------------------|
A|-------------------------------------------------------------|--------------------------------------|
E|-------------------------------------------------------------|--------------------------------------|

E|-------------------------------------------------------------|-10----7----10---7----------------|
B|-8---------8-------------------10--------10------------------|----------------------8-----7-----|
G|-9----%----9----%----9----9----9----%----9----%----9----%----|----------------------------------|
D|------%---------%----9----9---------%---------%----9----%----|----------------------------------|
A|-------------------------------------------------------------|----------------------------------|
E|-------------------------------------------------------------|----------------------------------|

E|-10----10--10--12------10-----------------------------------------------|-------------------------------------------------------------------------------|
B|-------------------12------10--12--11--10----------------------10--8----|-----------------------------------------------------10--10--------------------|
G|-------------------------------------------12--14--14--12--12-----------|-9-------------------------------------------9---12----------12--9---9---9-----|
D|-----------------------------------------------14--14--14--14-----------|-----12--9---------------9-----------9---12------------------------------------|
A|------------------------------------------------------------------------|-------------12--10--12------10--12--------------------------------------------|
E|------------------------------------------------------------------------|-------------------------------------------------------------------------------|

E|--------10----10----10----|
B|--------------------------|
G|-9------------------------|
D|--------------------------|
A|--------------------------|
E|--------------------------|
Iron Maiden - 22 Acacia Avenue
Iron Maiden - 22 Acacia Avenue.gp3