Iron Maiden - Aces High (2)

Iron Maiden - Aces High (2)

Iron Maiden



Title: Aces High
Album: Powerslave
Artist: Iron Maiden
Author: 

Track 1: Guitar 1
E|-------------|---------------------------------|---------------------------------|
B|-------------|---------------------------------|---------------------------------|
G|-%-----------|----------------6----------------|----------------6----------------|
D|-%------6----|-7----9----7----------9-----6----|-7----9----7----------9-----6----|
A|-------------|---------------------------------|---------------------------------|
E|-------------|---------------------------------|---------------------------------|

E|---------------------------------|---------------------------------|---------------------------------|
B|---------------------------------|---------------------------------|---------------------------------|
G|----------------6----------------|----------------6----------------|----------------6----------------|
D|-7----9----7----------9-----6----|-7----9----7----------9-----6----|-7----9----7----------9-----6----|
A|---------------------------------|---------------------------------|---------------------------------|
E|---------------------------------|---------------------------------|---------------------------------|

E|---------------------------------|---------------------------------|---------------------------------|
B|---------------------------------|---------------------------------|---------------------------------|
G|----------------6----------------|----------------6----------------|----------------6----------------|
D|-7----9----7----------9-----6----|-7----9----7----------9-----6----|-7----9----7----------9-----6----|
A|---------------------------------|---------------------------------|---------------------------------|
E|---------------------------------|---------------------------------|---------------------------------|

E|---------------------------------|---------------------------------|---------------------------------|
B|---------------------------------|---------------------------------|---------------------------------|
G|----------------6----------------|----------------6----------------|----------------6----------------|
D|-7----9----7----------9-----6----|-7----9----7----------9-----6----|-7----9----7----------9-----6----|
A|---------------------------------|---------------------------------|---------------------------------|
E|---------------------------------|---------------------------------|---------------------------------|

E|---------------------------------|---------------------------------|---------------------------------|
B|---------------------------------|---------------------------------|---------------------------------|
G|----------------6----------------|----------------6----------------|----------------6----------------|
D|-7----9----7----------9-----6----|-7----9----7----------9-----6----|-7----9----7----------9-----6----|
A|---------------------------------|---------------------------------|---------------------------------|
E|---------------------------------|---------------------------------|---------------------------------|

E|---------------------------------|----------------------------|---------|---------------------------------|
B|---------------------------------|----------------------------|---------|---------------------------------|
G|----------------6----------------|----------------------------|---------|---------------------------------|
D|-7----9----7----------9-----6----|-7----9----7----6------6----|-6-------|-10-----9----10---9----10---9----|
A|---------------------------------|----------------------------|---------|---------------------------------|
E|---------------------------------|----------------------------|---------|---------------------------------|

E|--------------------|---------------------------------|-----------------------------------------|
B|--------------------|---------------------------------|-----------------------------------------|
G|-9-----9------------|---------------------------------|------7----7----7----9----7--------------|
D|-------------10-----|-10-----9----10---9----10---9----|-9-----------------------------10---9----|
A|--------------------|---------------------------------|-----------------------------------------|
E|--------------------|---------------------------------|-----------------------------------------|

E|---------------------------------|--------------------|---------------------------------|
B|---------------------------------|--------------------|---------------------------------|
G|---------------------------------|-9-----9------------|---------------------------------|
D|-10-----9----10---9----10---9----|-------------10-----|-10-----9----10---9----10---9----|
A|---------------------------------|--------------------|---------------------------------|
E|---------------------------------|--------------------|---------------------------------|

E|-----------------------------------------|---------------------------------|--------------------|
B|-----------------------------------------|---------------------------------|--------------------|
G|------7----7----7----9----7--------------|---------------------------------|-9-----9------------|
D|-9-----------------------------10---9----|-10-----9----10---9----10---9----|-------------10-----|
A|-----------------------------------------|---------------------------------|--------------------|
E|-----------------------------------------|---------------------------------|--------------------|

E|---------------------------------|-----------------------------------------|---------------------------------|
B|---------------------------------|-----------------------------------------|---------------------------------|
G|---------------------------------|------7----7----7----9----7--------------|---------------------------------|
D|-10-----9----10---9----10---9----|-9-----------------------------10---9----|-10-----9----10---9----10---9----|
A|---------------------------------|-----------------------------------------|---------------------------------|
E|---------------------------------|-----------------------------------------|---------------------------------|

E|--------------------|---------------------------------|-----------------------------------------|
B|--------------------|---------------------------------|-----------------------------------------|
G|-9-----9------------|---------------------------------|------7----7----7----9----7--------------|
D|-------------10-----|-10-----9----10---9----10---9----|-9-----------------------------10---9----|
A|--------------------|---------------------------------|-----------------------------------------|
E|--------------------|---------------------------------|-----------------------------------------|

E|---------------------|---------------------|---------------------|---------------------|
B|---------------------|---------------------|---------------------|---------------------|
G|-9------11-----12----|-14-----12-----11----|-9------12-----11----|--------11-----------|
D|-9------11-----12----|-14-----12-----11----|-9------12-----11----|-12-----11-----12----|
A|-7------9------10----|-12-----10-----9-----|-7------10-----9-----|-12-----9------12----|
E|---------------------|---------------------|---------------------|-10------------10----|

E|---------------------|---------------------|---------------------|---------|---------------------|
B|---------------------|---------------------|---------------------|---------|---------------------|
G|-9------11-----12----|-14-----12-----11----|-9------12-----11----|---------|-9------11-----12----|
D|-9------11-----12----|-14-----12-----11----|-9------12-----11----|-12------|-9------11-----12----|
A|-7------9------10----|-12-----10-----9-----|-7------10-----9-----|-12------|-7------9------10----|
E|---------------------|---------------------|---------------------|-10------|---------------------|

E|---------------------|---------------------|---------------------|---------------------|
B|---------------------|---------------------|---------------------|---------------------|
G|-14-----12-----11----|-9------12-----11----|--------11-----------|-9------11-----12----|
D|-14-----12-----11----|-9------12-----11----|-12-----11-----12----|-9------11-----12----|
A|-12-----10-----9-----|-7------10-----9-----|-12-----9------12----|-7------9------10----|
E|---------------------|---------------------|-10------------10----|---------------------|

E|---------------------|---------------------|---------|---------------------|---------------------|
B|---------------------|---------------------|---------|---------------------|---------------------|
G|-14-----12-----11----|-9------12-----11----|---------|-2------4------5-----|-7------5------4-----|
D|-14-----12-----11----|-9------12-----11----|-12------|-2------4------5-----|-7------5------4-----|
A|-12-----10-----9-----|-7------10-----9-----|-12------|-0------2------3-----|-5------3------2-----|
E|---------------------|---------------------|-10------|---------------------|---------------------|

E|---------------------|---------------------|---------------------|---------------------|
B|---------------------|---------------------|---------------------|---------------------|
G|-2------5------4-----|--------4------------|-2------4------5-----|-7------5------4-----|
D|-2------5------4-----|-5------4------5-----|-2------4------5-----|-7------5------4-----|
A|-0------3------2-----|-5------2------5-----|-0------2------3-----|-5------3------2-----|
E|---------------------|-3-------------3-----|---------------------|---------------------|

E|---------------------|---------|---------------------|---------------------|---------------------|
B|---------------------|---------|---------------------|---------------------|---------------------|
G|-2------5------4-----|---------|-2------4------5-----|-7------5------4-----|-2------5------4-----|
D|-2------5------4-----|-5-------|-2------4------5-----|-7------5------4-----|-2------5------4-----|
A|-0------3------2-----|-5-------|-0------2------3-----|-5------3------2-----|-0------3------2-----|
E|---------------------|-3-------|---------------------|---------------------|---------------------|

E|---------------------|---------------------|---------------------|---------------------|
B|---------------------|---------------------|---------------------|---------------------|
G|--------4------------|-2------4------5-----|-7------5------4-----|-2------5------4-----|
D|-5------4------5-----|-2------4------5-----|-7------5------4-----|-2------5------4-----|
A|-5------2------5-----|-0------2------3-----|-5------3------2-----|-0------3------2-----|
E|-3-------------3-----|---------------------|---------------------|---------------------|

E|---------|-----------------------------|-----------------------------|-----------------------------|
B|---------|-----------------------------|-----------------------------|-----------------------------|
G|---------|-----------------------------|-----------------------------|-----------------------------|
D|-5-------|-----------------------------|-5---------------------------|-7---------------------------|
A|-5-------|-5----7-----7-----7----7-----|------7-----7-----7----7-----|------7-----7-----7----7-----|
E|-3-------|-----------------------------|-----------------------------|-----------------------------|

E|-----------------------------------------|-----------------------------|-----------------------------|
B|-----------------------------------------|-----------------------------|-----------------------------|
G|-5---------------------------------------|-----------------------------|-----------------------------|
D|------9----7----5----9----7----5----0----|-----------------------------|-5---------------------------|
A|-----------------------------------------|-5----7-----7-----7----7-----|------7-----7-----7----7-----|
E|-----------------------------------------|-----------------------------|-----------------------------|

E|-----------------------------|----------------------------|-----------------------------|
B|-----------------------------|----------------------------|-----------------------------|
G|-----------------------------|-5--------------------------|-----------------------------|
D|-7---------------------------|------9----7----5----7------|-----------------------------|
A|------7-----7-----7----7-----|----------------------------|-5----7-----7-----7----7-----|
E|-----------------------------|----------------------------|-----------------------------|

E|-----------------------------|-----------------------------|-----------------------------------------|
B|-----------------------------|-----------------------------|-----------------------------------------|
G|-----------------------------|-----------------------------|-5---------------------------------------|
D|-5---------------------------|-7---------------------------|------9----7----5----9----7----5----0----|
A|------7-----7-----7----7-----|------7-----7-----7----7-----|-----------------------------------------|
E|-----------------------------|-----------------------------|-----------------------------------------|

E|-----------------------------|-----------------------------|-----------------------------|
B|-----------------------------|-----------------------------|-----------------------------|
G|-----------------------------|-----------------------------|-----------------------------|
D|-----------------------------|-5---------------------------|-7---------------------------|
A|-5----7-----7-----7----7-----|------7-----7-----7----7-----|------7-----7-----7----7-----|
E|-----------------------------|-----------------------------|-----------------------------|

E|----------------------------|---------|---------|---------|---------|---------|---------|
B|----------------------------|---------|---------|---------|---------|---------|---------|
G|-5--------------------------|-9-------|-9-------|-5-------|-7-------|-9-------|-9-------|
D|------9----7----5----7------|-9-------|-9-------|-5-------|-7-------|-9-------|-9-------|
A|----------------------------|-7-------|-7-------|-3-------|-5-------|-7-------|-7-------|
E|----------------------------|---------|---------|---------|---------|---------|---------|

E|---------|---------|---------|---------|---------|---------|---------|---------|---------|
B|---------|---------|---------|---------|---------|---------|---------|---------|---------|
G|-5-------|-7-------|-9-------|-9-------|-5-------|-7-------|-9-------|-9-------|-5-------|
D|-5-------|-7-------|-9-------|-9-------|-5-------|-7-------|-9-------|-9-------|-5-------|
A|-3-------|-5-------|-7-------|-7-------|-3-------|-5-------|-7-------|-7-------|-3-------|
E|---------|---------|---------|---------|---------|---------|---------|---------|---------|

E|---------|---------|---------|---------|---------|-----------------------------|---------------|
B|---------|---------|---------|---------|---------|-----------------------------|---------------|
G|-7-------|-12------|-12------|-8-------|-10------|----------------24-----24----|-24-----24-----|
D|-7-------|-12------|-12------|-8-------|-10------|-----------24----------24----|-24-----24-----|
A|-5-------|-10------|-10------|-6-------|-8-------|------X----------------------|---------------|
E|---------|---------|---------|---------|---------|-X---------------------------|---------------|

E|---------|---------|---------|---------|---------|---------|---------|---------|---------|
B|---------|---------|---------|---------|---------|---------|---------|---------|---------|
G|-24------|-24------|-12------|-12------|-8-------|-10------|-12------|-12------|-8-------|
D|-24------|-24------|-12------|-12------|-8-------|-10------|-12------|-12------|-8-------|
A|---------|---------|-10------|-10------|-6-------|-8-------|-10------|-10------|-6-------|
E|---------|---------|---------|---------|---------|---------|---------|---------|---------|

E|---------|-----------------------------|-----------------------------|-----------------------------|
B|---------|-----------------------------|-----------------------------|-----------------------------|
G|-10------|-----------------------------|-----------------7-----7-----|-----------------------------|
D|-10------|-----------------------------|-----------------7-----7-----|-----------------------------|
A|-8-------|-0-----3----3-----0----0-----|-3----2----0-----5-----5-----|-0-----3----3-----0----0-----|
E|---------|-----------------------------|-----------------------------|-----------------------------|

E|---------------------------------|-----------------------------|-----------------------------|
B|---------------------------------|-----------------------------|-----------------------------|
G|---------------------2-----2-----|-----------------------------|-----------------7-----7-----|
D|---------------------2-----2-----|-----------------------------|-----------------7-----7-----|
A|-3----2----0---------0-----0-----|-0-----3----3-----0----0-----|-3----2----0-----5-----5-----|
E|----------------3----------------|-----------------------------|-----------------------------|

E|-----------------------------|----------------------------|-----------------------------|
B|-----------------------------|----------------------------|-----------------------------|
G|-----------------------------|---------------------2------|-----------------------------|
D|-----------------------------|---------------------2------|-----------------------------|
A|-0-----3----3-----0----0-----|-3----2----0---------0------|-0-----3----3-----0----0-----|
E|-----------------------------|----------------3-----------|-----------------------------|

E|-----------------------------|-----------------------------|---------------------------------|
B|-----------------------------|-----------------------------|---------------------------------|
G|-----------------7-----7-----|-----------------------------|---------------------2-----2-----|
D|-----------------7-----7-----|-----------------------------|---------------------2-----2-----|
A|-3----2----0-----5-----5-----|-0-----3----3-----0----0-----|-3----2----0---------0-----0-----|
E|-----------------------------|-----------------------------|----------------3----------------|

E|-----------------------------|-----------------------------|-----------------------------|
B|-----------------------------|-----------------------------|-----------------------------|
G|-----------------------------|-----------------7-----7-----|-----------------------------|
D|-----------------------------|-----------------7-----7-----|-----------------------------|
A|-0-----3----3-----0----0-----|-3----2----0-----5-----5-----|-0-----3----3-----0----0-----|
E|-----------------------------|-----------------------------|-----------------------------|

E|----------------------------|---------|---------|---------|---------|---------|---------|
B|----------------------------|---------|---------|---------|---------|---------|---------|
G|---------------------2------|-14------|-14------|-10------|-12------|-14------|-14------|
D|---------------------2------|-14------|-14------|-10------|-12------|-14------|-14------|
A|-3----2----0---------0------|-12------|-12------|-8-------|-10------|-12------|-12------|
E|----------------3-----------|---------|---------|---------|---------|---------|---------|

E|---------|---------|---------|---------|---------|---------|---------|---------|---------|
B|---------|---------|---------|---------|---------|---------|---------|---------|---------|
G|-5-------|-7-------|-14------|-14------|-10------|-12------|-14------|-14------|-5-------|
D|-5-------|-7-------|-14------|-14------|-10------|-12------|-14------|-14------|-5-------|
A|-3-------|-5-------|-12------|-12------|-8-------|-10------|-12------|-12------|-3-------|
E|---------|---------|---------|---------|---------|---------|---------|---------|---------|

E|---------|-----------------------------------------|-----------------------------------------|
B|---------|-15---12---0----15---14---0----15---12---|-0----15---14---0----15---12---0----15---|
G|-7-------|-----------------------------------------|-----------------------------------------|
D|-7-------|-----------------------------------------|-----------------------------------------|
A|-5-------|-----------------------------------------|-----------------------------------------|
E|---------|-----------------------------------------|-----------------------------------------|

E|-----------------------------------------|-----------------------------------------|
B|-14---0----15---12---0----15---14---0----|-15---12---0----15---14---0----0----0----|
G|-----------------------------------------|-----------------------------------------|
D|-----------------------------------------|-----------------------------------------|
A|-----------------------------------------|-----------------------------------------|
E|-----------------------------------------|-----------------------------------------|

E|-----------------------------------------|-----------------------------------------|
B|-12---0----10---0----8----0----10---0----|-8----0----7----0----8----0----7----0----|
G|-----------------------------------------|-----------------------------------------|
D|-----------------------------------------|-----------------------------------------|
A|-----------------------------------------|-----------------------------------------|
E|-----------------------------------------|-----------------------------------------|

E|-----------------------------------------|---------|-------------------|-----------------------------------------|
B|-5----0----7----0----8----0----7----0----|---------|-------------------|-10---9----7---------9----7---------7----|
G|-----------------------------------------|-6-------|--------------7----|----------------9--------------9---------|
D|-----------------------------------------|---------|-9-------9---------|-----------------------------------------|
A|-----------------------------------------|---------|-------------------|-----------------------------------------|
E|-----------------------------------------|---------|-------------------|-----------------------------------------|

E|--------------------------------------------|---------|----------------------------------|
B|--------------------------------------------|---------|----------------------------------|
G|-10---9----7---------9----7-----------------|---------|-11----10-------------------------|
D|----------------9--------------9----7---3---|-0-------|------------12----14--------------|
A|--------------------------------------------|---------|------------------------14---13---|
E|--------------------------------------------|---------|----------------------------------|

E|---------------------------------|----------------------------------|-15------|-----------------------------|
B|---------------------------------|-12----15---17---17----17---15----|---------|-----------------------------|
G|---------------------------------|----------------------------------|---------|-----------------------------|
D|---------------------------------|----------------------------------|---------|-----------------------------|
A|-12------------------------------|----------------------------------|---------|-0-----3----3-----0----0-----|
E|-------14---13---12----13--12----|----------------------------------|---------|-----------------------------|

E|-----------------------------|-----------------------------|---------------------------------|
B|-----------------------------|-----------------------------|---------------------------------|
G|-----------------7-----7-----|-----------------------------|---------------------2-----2-----|
D|-----------------7-----7-----|-----------------------------|---------------------2-----2-----|
A|-3----2----0-----5-----5-----|-0-----3----3-----0----0-----|-3----2----0---------0-----0-----|
E|-----------------------------|-----------------------------|----------------3----------------|

E|-----------------------------|-----------------------------|-----------------------------|
B|-----------------------------|-----------------------------|-----------------------------|
G|-----------------------------|-----------------7-----7-----|-----------------------------|
D|-----------------------------|-----------------7-----7-----|-----------------------------|
A|-0-----3----3-----0----0-----|-3----2----0-----5-----5-----|-0-----3----3-----0----0-----|
E|-----------------------------|-----------------------------|-----------------------------|

E|----------------------------|-----------------------------|-----------------------------|
B|----------------------------|-----------------------------|-----------------------------|
G|---------------------2------|-----------------------------|-----------------7-----7-----|
D|---------------------2------|-----------------------------|-----------------7-----7-----|
A|-3----2----0---------0------|-0-----3----3-----0----0-----|-3----2----0-----5-----5-----|
E|----------------3-----------|-----------------------------|-----------------------------|

E|-----------------------------|---------------------------------|-----------------------------|
B|-----------------------------|---------------------------------|-----------------------------|
G|-----------------------------|---------------------2-----2-----|-----------------------------|
D|-----------------------------|---------------------2-----2-----|-----------------------------|
A|-0-----3----3-----0----0-----|-3----2----0---------0-----0-----|-0-----3----3-----0----0-----|
E|-----------------------------|----------------3----------------|-----------------------------|

E|-----------------------------|-----------------------------|----------------------------|
B|-----------------------------|-----------------------------|----------------------------|
G|-----------------7-----7-----|-----------------------------|---------------------2------|
D|-----------------7-----7-----|-----------------------------|---------------------2------|
A|-3----2----0-----5-----5-----|-0-----3----3-----0----0-----|-3----2----0---------0------|
E|-----------------------------|-----------------------------|----------------3-----------|

E|---------------------|---------------------|---------------------|---------------------|
B|---------------------|---------------------|---------------------|---------------------|
G|-9------11-----12----|-14-----12-----11----|-9------12-----11----|--------11-----------|
D|-9------11-----12----|-14-----12-----11----|-9------12-----11----|-12-----11-----12----|
A|-7------9------10----|-12-----10-----9-----|-7------10-----9-----|-12-----9------12----|
E|---------------------|---------------------|---------------------|-10------------10----|

E|---------------------|---------------------|---------------------|---------|---------------------|
B|---------------------|---------------------|---------------------|---------|---------------------|
G|-9------11-----12----|-14-----12-----11----|-9------12-----11----|---------|-9------11-----12----|
D|-9------11-----12----|-14-----12-----11----|-9------12-----11----|-12------|-9------11-----12----|
A|-7------9------10----|-12-----10-----9-----|-7------10-----9-----|-12------|-7------9------10----|
E|---------------------|---------------------|---------------------|-10------|---------------------|

E|---------------------|---------------------|---------------------|---------------------|
B|---------------------|---------------------|---------------------|---------------------|
G|-14-----12-----11----|-9------12-----11----|--------11-----------|-9------11-----12----|
D|-14-----12-----11----|-9------12-----11----|-12-----11-----12----|-9------11-----12----|
A|-12-----10-----9-----|-7------10-----9-----|-12-----9------12----|-7------9------10----|
E|---------------------|---------------------|-10------------10----|---------------------|

E|---------------------|---------------------|---------|---------------------|---------------------|
B|---------------------|---------------------|---------|---------------------|---------------------|
G|-14-----12-----11----|-9------12-----11----|---------|-2------4------5-----|-7------5------4-----|
D|-14-----12-----11----|-9------12-----11----|-12------|-2------4------5-----|-7------5------4-----|
A|-12-----10-----9-----|-7------10-----9-----|-12------|-0------2------3-----|-5------3------2-----|
E|---------------------|---------------------|-10------|---------------------|---------------------|

E|---------------------|---------------------|---------------------|---------------------|
B|---------------------|---------------------|---------------------|---------------------|
G|-2------5------4-----|--------4------------|-2------4------5-----|-7------5------4-----|
D|-2------5------4-----|-5------4------5-----|-2------4------5-----|-7------5------4-----|
A|-0------3------2-----|-5------2------5-----|-0------2------3-----|-5------3------2-----|
E|---------------------|-3-------------3-----|---------------------|---------------------|

E|---------------------|---------|---------------------|---------------------|---------------------|
B|---------------------|---------|---------------------|---------------------|---------------------|
G|-2------5------4-----|---------|-2------4------5-----|-7------5------4-----|-2------5------4-----|
D|-2------5------4-----|-5-------|-2------4------5-----|-7------5------4-----|-2------5------4-----|
A|-0------3------2-----|-5-------|-0------2------3-----|-5------3------2-----|-0------3------2-----|
E|---------------------|-3-------|---------------------|---------------------|---------------------|

E|---------------------|---------------------|---------------------|---------------------|
B|---------------------|---------------------|---------------------|---------------------|
G|--------4------------|-2------4------5-----|-7------5------4-----|-2------5------4-----|
D|-5------4------5-----|-2------4------5-----|-7------5------4-----|-2------5------4-----|
A|-5------2------5-----|-0------2------3-----|-5------3------2-----|-0------3------2-----|
E|-3-------------3-----|---------------------|---------------------|---------------------|

E|---------|-----------------------------|-----------------------------|-----------------------------|
B|---------|-----------------------------|-----------------------------|-----------------------------|
G|---------|-----------------------------|-----------------------------|-----------------------------|
D|-5-------|-----------------------------|-5---------------------------|-7---------------------------|
A|-5-------|-5----7-----7-----7----7-----|------7-----7-----7----7-----|------7-----7-----7----7-----|
E|-3-------|-----------------------------|-----------------------------|-----------------------------|

E|-----------------------------------------|-----------------------------|-----------------------------|
B|-----------------------------------------|-----------------------------|-----------------------------|
G|-5---------------------------------------|-----------------------------|-----------------------------|
D|------9----7----5----9----7----5----0----|-----------------------------|-5---------------------------|
A|-----------------------------------------|-5----7-----7-----7----7-----|------7-----7-----7----7-----|
E|-----------------------------------------|-----------------------------|-----------------------------|

E|-----------------------------|----------------------------|-----------------------------|
B|-----------------------------|----------------------------|-----------------------------|
G|-----------------------------|-5--------------------------|-----------------------------|
D|-7---------------------------|------9----7----5----7------|-----------------------------|
A|------7-----7-----7----7-----|----------------------------|-5----7-----7-----7----7-----|
E|-----------------------------|----------------------------|-----------------------------|

E|-----------------------------|-----------------------------|-----------------------------------------|
B|-----------------------------|-----------------------------|-----------------------------------------|
G|-----------------------------|-----------------------------|-5---------------------------------------|
D|-5---------------------------|-7---------------------------|------9----7----5----9----7----5----0----|
A|------7-----7-----7----7-----|------7-----7-----7----7-----|-----------------------------------------|
E|-----------------------------|-----------------------------|-----------------------------------------|

E|-----------------------------|-----------------------------|-----------------------------|
B|-----------------------------|-----------------------------|-----------------------------|
G|-----------------------------|-----------------------------|-----------------------------|
D|-----------------------------|-5---------------------------|-7---------------------------|
A|-5----7-----7-----7----7-----|------7-----7-----7----7-----|------7-----7-----7----7-----|
E|-----------------------------|-----------------------------|-----------------------------|

E|----------------------------|---------|---------|---------|---------|---------|---------|
B|----------------------------|---------|---------|---------|---------|---------|---------|
G|-5--------------------------|-9-------|-9-------|-5-------|-7-------|-9-------|-9-------|
D|------9----7----5----7------|-9-------|-9-------|-5-------|-7-------|-9-------|-9-------|
A|----------------------------|-7-------|-7-------|-3-------|-5-------|-7-------|-7-------|
E|----------------------------|---------|---------|---------|---------|---------|---------|

E|---------|---------|---------|---------|---------|---------|---------|---------|---------|
B|---------|---------|---------|---------|---------|---------|---------|---------|---------|
G|-5-------|-7-------|-9-------|-9-------|-5-------|-7-------|-9-------|-9-------|-5-------|
D|-5-------|-7-------|-9-------|-9-------|-5-------|-7-------|-9-------|-9-------|-5-------|
A|-3-------|-5-------|-7-------|-7-------|-3-------|-5-------|-7-------|-7-------|-3-------|
E|---------|---------|---------|---------|---------|---------|---------|---------|---------|

E|---------|---------|---------|---------|---------|-----------------------------|---------|
B|---------|---------|---------|---------|---------|-----------------------------|---------|
G|-7-------|-12------|-12------|-8-------|-10------|----------------24-----24----|-24------|
D|-7-------|-12------|-12------|-8-------|-10------|-----------24----------24----|-24------|
A|-5-------|-10------|-10------|-6-------|-8-------|------X----------------------|---------|
E|---------|---------|---------|---------|---------|-X---------------------------|---------|

E|---------|---------|---------|---------|---------|---------|---------|---------|---------|
B|---------|---------|---------|---------|---------|---------|---------|---------|---------|
G|-24------|-24------|-12------|-12------|-8-------|-10------|-12------|-12------|-8-------|
D|-24------|-24------|-12------|-12------|-8-------|-10------|-12------|-12------|-8-------|
A|---------|---------|-10------|-10------|-6-------|-8-------|-10------|-10------|-6-------|
E|---------|---------|---------|---------|---------|---------|---------|---------|---------|

E|---------|---------------------------------|--------------------|---------------------------------|
B|---------|---------------------------------|--------------------|---------------------------------|
G|-10------|---------------------------------|-9-----9------------|---------------------------------|
D|-10------|-10-----9----10---9----10---9----|-------------10-----|-10-----9----10---9----10---9----|
A|-8-------|---------------------------------|--------------------|---------------------------------|
E|---------|---------------------------------|--------------------|---------------------------------|

E|-----------------------------------------|---------------------------------|--------------------|
B|-----------------------------------------|---------------------------------|--------------------|
G|------7----7----7----9----7--------------|---------------------------------|-9-----9------------|
D|-9-----------------------------10---9----|-10-----9----10---9----10---9----|-------------10-----|
A|-----------------------------------------|---------------------------------|--------------------|
E|-----------------------------------------|---------------------------------|--------------------|

E|---------------------------------|-----------------------------------------|---------------------------------|
B|---------------------------------|-----------------------------------------|---------------------------------|
G|---------------------------------|------7----7----7----9----7--------------|---------------------------------|
D|-10-----9----10---9----10---9----|-9-----------------------------10---9----|-10-----9----10---9----10---9----|
A|---------------------------------|-----------------------------------------|---------------------------------|
E|---------------------------------|-----------------------------------------|---------------------------------|

E|--------------------|---------------------------------|-----------------------------------------|
B|--------------------|---------------------------------|-----------------------------------------|
G|-9-----9------------|---------------------------------|------7----7----7----9----7--------------|
D|-------------10-----|-10-----9----10---9----10---9----|-9-----------------------------10---9----|
A|--------------------|---------------------------------|-----------------------------------------|
E|--------------------|---------------------------------|-----------------------------------------|

E|---------------------------------|--------------------|---------------------------------|
B|---------------------------------|--------------------|---------------------------------|
G|---------------------------------|-9-----9------------|---------------------------------|
D|-10-----9----10---9----10---9----|-------------10-----|-10-----9----10---9----10---9----|
A|---------------------------------|--------------------|---------------------------------|
E|---------------------------------|--------------------|---------------------------------|

E|------------------------------------------------|---------|---------|
B|------------------------------------------------|---------|---------|
G|------7----7----7----9----7---9---7-------------|---------|-%-------|
D|-9------------------------------------10---9----|-7-------|-%-------|
A|------------------------------------------------|-7-------|---------|
E|------------------------------------------------|-5-------|---------|
Iron Maiden - Aces High (2)
Iron Maiden - Aces High (2).gp3