Iron Maiden - Aces High (4)

Iron Maiden



Title: 
Album: 
Artist: Onslaught
Author: Guilherme Queiroz

Track 1: Guitar I
E|-------------------|-----------------------------------------|-----------------------------------------|
B|-------------------|-----------------------------------------|-----------------------------------------|
G|-%-------%---------|------4---------6----%----4--------------|------4---------6----%----4----%---------|
D|-%-------%----6----|-7---------7---------%---------7----6----|-7---------7---------%---------%----6----|
A|-------------------|-----------------------------------------|-----------------------------------------|
E|-------------------|-----------------------------------------|-----------------------------------------|

E|-----------------------------------------|-----------------------------------------|
B|-----------------------------------------|-----------------------------------------|
G|------4---------6----%----4----%---------|------4---------6----%----4----%---------|
D|-7---------7---------%---------%----6----|-7---------7---------%---------%----6----|
A|-----------------------------------------|-----------------------------------------|
E|-----------------------------------------|-----------------------------------------|

E|----------------------------|--------|---------------------------------|--------------------|
B|----------------------------|--------|---------------------------------|-5-----5------------|
G|------4---------------------|--------|-5------4----5----4----5----4----|-------------5------|
D|-7---------7----6----6------|-6------|---------------------------------|--------------------|
A|----------------------------|--------|---------------------------------|--------------------|
E|----------------------------|--------|---------------------------------|--------------------|

E|---------------------------------|-----------------------------------------|-------------------------|
B|---------------------------------|---------------------5-------------------|-------------------------|
G|-5------4----5----4----5----4----|-4----7----7----7---------7----5----4----|-------------------------|
D|---------------------------------|-----------------------------------------|-9------11---11----12----|
A|---------------------------------|-----------------------------------------|-7------9----9-----10----|
E|---------------------------------|-----------------------------------------|-------------------------|

E|-------------------------|-------------------------|-------------------------|-------------------------|
B|-------------------------|-------------------------|-------------------------|-------------------------|
G|-------------------------|-------------------------|-------------------------|-------------------------|
D|-14-----12---12----11----|-9------12---12----11----|-7------11---11----7-----|-9------11---11----12----|
A|-12-----10---10----9-----|-7------10---10----9-----|-5------9----9-----5-----|-7------9----9-----10----|
E|-------------------------|-------------------------|-------------------------|-------------------------|

E|-------------------------|-------------------------|---------|-------------------------|
B|-------------------------|-------------------------|---------|-------------------------|
G|-------------------------|-------------------------|---------|-------------------------|
D|-14-----12---12----11----|-9------12---12----11----|-7-------|-9------11---11----12----|
A|-12-----10---10----9-----|-7------10---10----9-----|-5-------|-7------9----9-----10----|
E|-------------------------|-------------------------|---------|-------------------------|

E|-------------------------|-------------------------|-------------------------|-------------------------|
B|-------------------------|-------------------------|-------------------------|-------------------------|
G|-------------------------|-------------------------|-------------------------|-------------------------|
D|-14-----12---12----11----|-9------12---12----11----|-7------11---11----7-----|-9------11---11----12----|
A|-12-----10---10----9-----|-7------10---10----9-----|-5------9----9-----5-----|-7------9----9-----10----|
E|-------------------------|-------------------------|-------------------------|-------------------------|

E|-------------------------|-------------------------|---------|-------------------------|
B|-------------------------|-------------------------|---------|-------------------------|
G|-------------------------|-------------------------|---------|-------------------------|
D|-14-----12---12----11----|-9------12---12----11----|-7-------|-------------------------|
A|-12-----10---10----9-----|-7------10---10----9-----|-5-------|-7------9----9-----10----|
E|-------------------------|-------------------------|---------|-5------7----7-----8-----|

E|-------------------------|-------------------------|-------------------------|-------------------------|
B|-------------------------|-------------------------|-------------------------|-------------------------|
G|-------------------------|-------------------------|-------------------------|-------------------------|
D|-------------------------|-------------------------|-------------------------|-------------------------|
A|-12-----10---10----9-----|-7------10---10----9-----|-5------9----9-----5-----|-7------9----9-----10----|
E|-10-----8----8-----7-----|-5------8----8-----7-----|-3------7----7-----3-----|-5------7----7-----8-----|

E|-------------------------|-------------------------|---------|-------------------------|
B|-------------------------|-------------------------|---------|-------------------------|
G|-------------------------|-------------------------|---------|-------------------------|
D|-------------------------|-------------------------|---------|-------------------------|
A|-12-----10---10----9-----|-7------10---10----9-----|-5-------|-7------9----9-----10----|
E|-10-----8----8-----7-----|-5------8----8-----7-----|-3-------|-5------7----7-----8-----|

E|-------------------------|-------------------------|-------------------------|-------------------------|
B|-------------------------|-------------------------|-------------------------|-------------------------|
G|-------------------------|-------------------------|-------------------------|-------------------------|
D|-------------------------|-------------------------|-------------------------|-------------------------|
A|-12-----10---10----9-----|-7------10---10----9-----|-5------9----9-----5-----|-7------9----9-----10----|
E|-10-----8----8-----7-----|-5------8----8-----7-----|-3------7----7-----3-----|-5------7----7-----8-----|

E|-------------------------|-------------------------|---------|-------------------------------------|
B|-------------------------|-------------------------|---------|-------------------------------------|
G|-------------------------|-------------------------|---------|-----------%---------%---------------|
D|-------------------------|-------------------------|---------|-----------%---------%---------------|
A|-12-----10---10----9-----|-7------10---10----9-----|-5-------|-5----7---------7---------7----7-----|
E|-10-----8----8-----7-----|-5------8----8-----7-----|-3-------|-------------------------------------|

E|-------------------------------------|-------------------------------------|-----------------------------------------|
B|-------------------------------------|-------------------------------------|-----------------------------------------|
G|-----------%---------%---------------|-----------%---------%---------------|-5----4--------------4-------------------|
D|-5---------%---------%---------------|-7---------%---------%---------------|-----------7----5---------7----5----0----|
A|------7---------7---------7----7-----|------7---------7---------7----7-----|-----------------------------------------|
E|-------------------------------------|-------------------------------------|-----------------------------------------|

E|-------------------------------------|-------------------------------------|-------------------------------------|
B|-------------------------------------|-------------------------------------|-------------------------------------|
G|-----------%---------%---------------|-----------%---------%---------------|-----------%---------%---------------|
D|-----------%---------%---------------|-5---------%---------%---------------|-7---------%---------%---------------|
A|-5----7---------7---------7----7-----|------7---------7---------7----7-----|------7---------7---------7----7-----|
E|-------------------------------------|-------------------------------------|-------------------------------------|

E|----------------------------|----------------------------|---------|---------|---------|
B|----------------------------|----------------------------|---------|---------|---------|
G|-5----4---------------------|-5----4---------------------|-9-------|-9-------|-5-------|
D|-----------7----5----7------|-----------7----5----7------|-9-------|-9-------|-5-------|
A|----------------------------|----------------------------|-7-------|-7-------|-3-------|
E|----------------------------|----------------------------|---------|---------|---------|

E|---------|---------|---------|---------|---------|---------|---------|---------|---------|
B|---------|---------|---------|---------|---------|---------|---------|---------|---------|
G|-7-------|-9-------|-9-------|-5-------|-7-------|-9-------|-9-------|-5-------|-7-------|
D|-7-------|-9-------|-9-------|-5-------|-7-------|-9-------|-9-------|-5-------|-7-------|
A|-5-------|-7-------|-7-------|-3-------|-5-------|-7-------|-7-------|-3-------|-5-------|
E|---------|---------|---------|---------|---------|---------|---------|---------|---------|

E|---------|---------|---------|---------|---------|---------|---------|---------|---------|
B|---------|---------|---------|---------|---------|---------|---------|---------|---------|
G|-9-------|-9-------|-5-------|-7-------|-12------|-12------|-8-------|-10------|-12------|
D|-9-------|-9-------|-5-------|-7-------|-12------|-12------|-8-------|-10------|-12------|
A|-7-------|-7-------|-3-------|-5-------|-10------|-10------|-6-------|-8-------|-10------|
E|---------|---------|---------|---------|---------|---------|---------|---------|---------|

E|---------|---------|---------|---------|---------|---------|---------|---------|---------|
B|---------|---------|---------|---------|---------|---------|---------|---------|---------|
G|-12------|-8-------|-10------|-12------|-12------|-8-------|-10------|-12------|-12------|
D|-12------|-8-------|-10------|-12------|-12------|-8-------|-10------|-12------|-12------|
A|-10------|-6-------|-8-------|-10------|-10------|-6-------|-8-------|-10------|-10------|
E|---------|---------|---------|---------|---------|---------|---------|---------|---------|

E|---------|---------|---------------------------------|-----------------------------|
B|---------|---------|---------------------------------|-----------------------------|
G|-8-------|-10------|-----------------%---------------|-----------------7-----7-----|
D|-8-------|-10------|-----------------%---------------|-----------------7-----7-----|
A|-6-------|-8-------|-0-----3----3---------0----0-----|-3----2----0-----5-----5-----|
E|---------|---------|---------------------------------|-----------------------------|

E|---------------------------------|---------------------------------|---------------------------------|
B|---------------------------------|---------------------------------|---------------------------------|
G|-----------------%---------------|---------------------2-----2-----|-2---------------%---------------|
D|-----------------%---------------|---------------------2-----2-----|-2---------------%---------------|
A|-0-----3----3---------0----0-----|-3----2----0---------0-----0-----|-0-----3----3---------0----0-----|
E|---------------------------------|----------------3----------------|---------------------------------|

E|-----------------------------|---------------------------------|-------------------------------------|
B|-----------------------------|---------------------------------|-------------------------------------|
G|-----------------7-----7-----|-2---------------%---------------|---------------------2----%----%-----|
D|-----------------7-----7-----|-2---------------%---------------|---------------------2----%----%-----|
A|-3----2----0-----5-----5-----|-0-----3----3---------0----0-----|-3----2----0---------0---------------|
E|-----------------------------|---------------------------------|----------------3--------------------|

E|-------------------------------------|--------------------------------------|-------------------------------------------------------------|
B|-------------------------------------|-5------------------------------------|-------------------------------------------------------------|
G|---------------------2----%----%-----|-7------7----7----7----7----7----7----|-7----7----7----7----7----7----7----7----7----7----7----7----|
D|---------------------2----%----%-----|--------------------------------------|-------------------------------------------------------------|
A|-3----2----0---------0---------------|--------------------------------------|-------------------------------------------------------------|
E|----------------3--------------------|--------------------------------------|-------------------------------------------------------------|

E|-------------------------------------------------------------|--------------------------|
B|-------------------------------------------------------------|--------------5-----8-----|
G|-7----7----7----7----7----7----7----7----7----7----7----7----|-7------7-----------------|
D|-------------------------------------------------------------|--------------------------|
A|-------------------------------------------------------------|--------------------------|
E|-------------------------------------------------------------|--------------------------|

E|---------|-------------------------------------|-----------------------------------------|
B|-8-------|-8-----8----5---------5--------------|-----------------------------------------|
G|---------|-----------------7---------7----5----|-7----5---------5------------------------|
D|---------|-------------------------------------|-----------7---------7----5----7----5----|
A|---------|-------------------------------------|-----------------------------------------|
E|---------|-------------------------------------|-----------------------------------------|

E|---------0-----|-8----5----0----7----5----0----8----5----0----7----5----0----|-8----5----0----7----5----0----X----5----0----7----5----0----|
B|---------------|-------------------------------------------------------------|-------------------------------------------------------------|
G|---------------|-------------------------------------------------------------|-------------------------------------------------------------|
D|---------------|-------------------------------------------------------------|-------------------------------------------------------------|
A|-7-------------|-------------------------------------------------------------|-------------------------------------------------------------|
E|---------------|-------------------------------------------------------------|-------------------------------------------------------------|

E|-8----5----0----7----5----0----8----5----0----7----5----0----|-------------------------------|
B|-------------------------------------------------------------|-10-----10---10---10-----------|
G|-------------------------------------------------------------|-----------------------%---14--|
D|-------------------------------------------------------------|-----------------------%-------|
A|-------------------------------------------------------------|-------------------------------|
E|-------------------------------------------------------------|-------------------------------|

E|-----------------------------------------------------------|-------12---13---12---15---15-----|
B|------------------------------------12---13---12-------12--|-15-------------------------------|
G|-12---14---12--------12---14---%------------------14-------|----------------------------------|
D|----------------14-------------%---------------------------|----------------------------------|
A|-----------------------------------------------------------|----------------------------------|
E|-----------------------------------------------------------|----------------------------------|

E|-15------|-15------|---------|---------|---------|---------|---------|---------|---------|
B|---------|---------|---------|---------|---------|---------|---------|---------|---------|
G|---------|---------|---------|---------|---------|---------|---------|---------|-7-------|
D|---------|---------|-9-------|-9-------|-5-------|-7-------|-9-------|-9-------|-7-------|
A|---------|---------|-9-------|-9-------|-5-------|-7-------|-9-------|-9-------|-5-------|
E|---------|---------|-7-------|-7-------|-3-------|-5-------|-7-------|-7-------|---------|

E|---------|---------|---------|---------|---------|---------|---------|---------|---------|
B|---------|---------|---------|---------|---------|---------|---------|---------|---------|
G|-9-------|---------|---------|---------|---------|---------|---------|-7-------|-9-------|
D|-9-------|-9-------|-9-------|-5-------|-7-------|-9-------|-9-------|-7-------|-9-------|
A|-7-------|-9-------|-9-------|-5-------|-7-------|-9-------|-9-------|-5-------|-7-------|
E|---------|-7-------|-7-------|-3-------|-5-------|-7-------|-7-------|---------|---------|

E|---------------------------------|-----------------------------|---------------------------------|
B|---------------------------------|-----------------------------|---------------------------------|
G|-----------------%---------------|-----------------7-----7-----|-----------------%---------------|
D|-----------------%---------------|-----------------7-----7-----|-----------------%---------------|
A|-0-----3----3---------0----0-----|-3----2----0-----5-----5-----|-0-----3----3---------0----0-----|
E|---------------------------------|-----------------------------|---------------------------------|

E|---------------------------------|---------------------------------|-----------------------------|
B|---------------------------------|---------------------------------|-----------------------------|
G|---------------------2-----2-----|-----------------%---------------|-----------------7-----7-----|
D|---------------------2-----2-----|-----------------%---------------|-----------------7-----7-----|
A|-3----2----0---------0-----0-----|-0-----3----3---------0----0-----|-3----2----0-----5-----5-----|
E|----------------3----------------|---------------------------------|-----------------------------|

E|---------------------------------|-------------------------------------|---------------------------------|
B|---------------------------------|-------------------------------------|---------------------------------|
G|-----------------%---------------|---------------------2----%----%-----|-5------4----5----4----5----4----|
D|-----------------%---------------|---------------------2----%----%-----|---------------------------------|
A|-0-----3----3---------0----0-----|-3----2----0---------0---------------|---------------------------------|
E|---------------------------------|----------------3--------------------|---------------------------------|

E|--------------------|---------------------------------|-----------------------------------------|
B|-5-----5------------|---------------------------------|---------------------5-------------------|
G|-------------5------|-5------4----5----4----5----4----|-4----7----7----7---------7----5----4----|
D|--------------------|---------------------------------|-----------------------------------------|
A|--------------------|---------------------------------|-----------------------------------------|
E|--------------------|---------------------------------|-----------------------------------------|

E|---------------------------------|--------------------|---------------------------------|
B|---------------------------------|-5-----5------------|---------------------------------|
G|-5------4----5----4----5----4----|-------------5------|-5------4----5----4----5----4----|
D|---------------------------------|--------------------|---------------------------------|
A|---------------------------------|--------------------|---------------------------------|
E|---------------------------------|--------------------|---------------------------------|

E|------------------------------------------------|--------------------------------|
B|------------------------------------------------|-8------6---8---6---5-----------|
G|-4----7----7----7----9----7---9---7---5----4----|-5------------------------7-----|
D|------------------------------------------------|--------------------------------|
A|------------------------------------------------|--------------------------------|
E|------------------------------------------------|--------------------------------|

E|-------------------------|--------------------|
B|-5-----6-----5-----3-----|--------------------|
G|-------------------------|-5------2-----%-----|
D|-------------------------|--------2-----%-----|
A|-------------------------|--------0-----------|
E|-------------------------|--------------------|
Iron Maiden - Aces High (4)
Iron Maiden - Aces High (4).gp3