Iron Maiden - Aces High (5)

Iron Maiden - Aces High (5)

Iron Maiden



Title: Aces High
Album: Powerslave
Artist: Iron Maiden
Author: Harris

Track 1: Guitar 1
E|------------------------|-----------------------------------------|-----------------------------------------|
B|------------------------|-----------------------------------------|-----------------------------------------|
G|-%------%-----%---------|------4---------6----%----4--------------|------4---------6----%----4----%---------|
D|-%------%-----%----6----|-7---------7---------%---------7----6----|-7---------7---------%---------%----6----|
A|------------------------|-----------------------------------------|-----------------------------------------|
E|------------------------|-----------------------------------------|-----------------------------------------|

E|-----------------------------------------|-----------------------------------------|
B|-----------------------------------------|-----------------------------------------|
G|------4---------6----%----4----%---------|------4---------6----%----4----%---------|
D|-7---------7---------%---------%----6----|-7---------7---------%---------%----6----|
A|-----------------------------------------|-----------------------------------------|
E|-----------------------------------------|-----------------------------------------|

E|-----------------------------------------|-----------------------------------------|
B|-----------------------------------------|-----------------------------------------|
G|------4---------6----%----4--------------|------4---------6----%----4----%---------|
D|-7---------7---------%---------7----6----|-7---------7---------%---------%----6----|
A|-----------------------------------------|-----------------------------------------|
E|-----------------------------------------|-----------------------------------------|

E|-----------------------------------------|-----------------------------------------|
B|-----------------------------------------|-----------------------------------------|
G|------4---------6----%----4----%---------|------4---------6----%----4----%---------|
D|-7---------7---------%---------%----6----|-7---------7---------%---------%----6----|
A|-----------------------------------------|-----------------------------------------|
E|-----------------------------------------|-----------------------------------------|

E|-----------------------------------------|-----------------------------------------|
B|-----------------------------------------|-----------------------------------------|
G|------4---------6----%----4--------------|------4---------6----%----4----%---------|
D|-7---------7---------%---------7----6----|-7---------7---------%---------%----6----|
A|-----------------------------------------|-----------------------------------------|
E|-----------------------------------------|-----------------------------------------|

E|-----------------------------------------|-----------------------------------------|
B|-----------------------------------------|-----------------------------------------|
G|------4---------6----%----4----%---------|------4---------6----%----4----%---------|
D|-7---------7---------%---------%----6----|-7---------7---------%---------%----6----|
A|-----------------------------------------|-----------------------------------------|
E|-----------------------------------------|-----------------------------------------|

E|-----------------------------------------|-----------------------------------------|
B|-----------------------------------------|-----------------------------------------|
G|------4---------6----%----4--------------|------4---------6----%----4----%---------|
D|-7---------7---------%---------7----6----|-7---------7---------%---------%----6----|
A|-----------------------------------------|-----------------------------------------|
E|-----------------------------------------|-----------------------------------------|

E|-----------------------------------------|----------------------------|---------------------------------|
B|-----------------------------------------|----------------------------|---------------------------------|
G|------4---------6----%----4----%---------|------4---------------------|-5------4----5----4----5----4----|
D|-7---------7---------%---------%----6----|-7---------7----6----6------|---------------------------------|
A|-----------------------------------------|----------------------------|---------------------------------|
E|-----------------------------------------|----------------------------|---------------------------------|

E|--------------------|---------------------------------|-----------------------------------------|
B|-5-----5------------|---------------------------------|---------------------5-------------------|
G|-------------5------|-5------4----5----4----5----4----|-4----7----7----7---------7----5----4----|
D|--------------------|---------------------------------|-----------------------------------------|
A|--------------------|---------------------------------|-----------------------------------------|
E|--------------------|---------------------------------|-----------------------------------------|

E|---------------------------------|--------------------|---------------------------------|
B|---------------------------------|-5-----5------------|---------------------------------|
G|-5------4----5----4----5----4----|-------------5------|-5------4----5----4----5----4----|
D|---------------------------------|--------------------|---------------------------------|
A|---------------------------------|--------------------|---------------------------------|
E|---------------------------------|--------------------|---------------------------------|

E|-----------------------------------------|---------------------------------|--------------------|
B|---------------------5-------------------|---------------------------------|-5-----5------------|
G|-4----7----7----7---------7----5----4----|-5------4----5----4----5----4----|-------------5------|
D|-----------------------------------------|---------------------------------|--------------------|
A|-----------------------------------------|---------------------------------|--------------------|
E|-----------------------------------------|---------------------------------|--------------------|

E|---------------------------------|-----------------------------------------|---------------------------------|
B|---------------------------------|---------------------5-------------------|---------------------------------|
G|-5------4----5----4----5----4----|-4----7----7----7---------7----5----4----|-5------4----5----4----5----4----|
D|---------------------------------|-----------------------------------------|---------------------------------|
A|---------------------------------|-----------------------------------------|---------------------------------|
E|---------------------------------|-----------------------------------------|---------------------------------|

E|--------------------|---------------------------------|-----------------------------------------|
B|-5-----5------------|---------------------------------|---------------------5-------------------|
G|-------------5------|-5------4----5----4----5----4----|-4----7----7----7---------7----5----4----|
D|--------------------|---------------------------------|-----------------------------------------|
A|--------------------|---------------------------------|-----------------------------------------|
E|--------------------|---------------------------------|-----------------------------------------|

E|-------------------------|-------------------------|-------------------------|-------------------------|
B|-------------------------|-------------------------|-------------------------|-------------------------|
G|-------------------------|-------------------------|-------------------------|-------------------------|
D|-9------11---11----12----|-14-----12---12----11----|-9------12---12----11----|-7------11---11----7-----|
A|-7------9----9-----10----|-12-----10---10----9-----|-7------10---10----9-----|-5------9----9-----5-----|
E|-------------------------|-------------------------|-------------------------|-------------------------|

E|-------------------------|-------------------------|-------------------------|---------|
B|-------------------------|-------------------------|-------------------------|---------|
G|-------------------------|-------------------------|-------------------------|---------|
D|-9------11---11----12----|-14-----12---12----11----|-9------12---12----11----|-7-------|
A|-7------9----9-----10----|-12-----10---10----9-----|-7------10---10----9-----|-5-------|
E|-------------------------|-------------------------|-------------------------|---------|

E|-------------------------|-------------------------|-------------------------|-------------------------|
B|-------------------------|-------------------------|-------------------------|-------------------------|
G|-------------------------|-------------------------|-------------------------|-------------------------|
D|-9------11---11----12----|-14-----12---12----11----|-9------12---12----11----|-7------11---11----7-----|
A|-7------9----9-----10----|-12-----10---10----9-----|-7------10---10----9-----|-5------9----9-----5-----|
E|-------------------------|-------------------------|-------------------------|-------------------------|

E|-------------------------|-------------------------|-------------------------|---------|
B|-------------------------|-------------------------|-------------------------|---------|
G|-------------------------|-------------------------|-------------------------|---------|
D|-9------11---11----12----|-14-----12---12----11----|-9------12---12----11----|-7-------|
A|-7------9----9-----10----|-12-----10---10----9-----|-7------10---10----9-----|-5-------|
E|-------------------------|-------------------------|-------------------------|---------|

E|-------------------------|-------------------------|-------------------------|-------------------------|
B|-------------------------|-------------------------|-------------------------|-------------------------|
G|-------------------------|-------------------------|-------------------------|-------------------------|
D|-------------------------|-------------------------|-------------------------|-------------------------|
A|-7------9----9-----10----|-12-----10---10----9-----|-7------10---10----9-----|-5------9----9-----5-----|
E|-5------7----7-----8-----|-10-----8----8-----7-----|-5------8----8-----7-----|-3------7----7-----3-----|

E|-------------------------|-------------------------|-------------------------|---------|
B|-------------------------|-------------------------|-------------------------|---------|
G|-------------------------|-------------------------|-------------------------|---------|
D|-------------------------|-------------------------|-------------------------|---------|
A|-7------9----9-----10----|-12-----10---10----9-----|-7------10---10----9-----|-5-------|
E|-5------7----7-----8-----|-10-----8----8-----7-----|-5------8----8-----7-----|-3-------|

E|-------------------------|-------------------------|-------------------------|-------------------------|
B|-------------------------|-------------------------|-------------------------|-------------------------|
G|-------------------------|-------------------------|-------------------------|-------------------------|
D|-------------------------|-------------------------|-------------------------|-------------------------|
A|-7------9----9-----10----|-12-----10---10----9-----|-7------10---10----9-----|-5------9----9-----5-----|
E|-5------7----7-----8-----|-10-----8----8-----7-----|-5------8----8-----7-----|-3------7----7-----3-----|

E|-------------------------|-------------------------|-------------------------|---------|
B|-------------------------|-------------------------|-------------------------|---------|
G|-------------------------|-------------------------|-------------------------|---------|
D|-------------------------|-------------------------|-------------------------|---------|
A|-7------9----9-----10----|-12-----10---10----9-----|-7------10---10----9-----|-5-------|
E|-5------7----7-----8-----|-10-----8----8-----7-----|-5------8----8-----7-----|-3-------|

E|-------------------------------------|-------------------------------------|-------------------------------------|
B|-------------------------------------|-------------------------------------|-------------------------------------|
G|-----------%---------%---------------|-----------%---------%---------------|-----------%---------%---------------|
D|-----------%---------%---------------|-5---------%---------%---------------|-7---------%---------%---------------|
A|-5----7---------7---------7----7-----|------7---------7---------7----7-----|------7---------7---------7----7-----|
E|-------------------------------------|-------------------------------------|-------------------------------------|

E|-----------------------------------------|-------------------------------------|-------------------------------------|
B|-----------------------------------------|-------------------------------------|-------------------------------------|
G|-5----4--------------4-------------------|-----------%---------%---------------|-----------%---------%---------------|
D|-----------7----5---------7----5----0----|-----------%---------%---------------|-5---------%---------%---------------|
A|-----------------------------------------|-5----7---------7---------7----7-----|------7---------7---------7----7-----|
E|-----------------------------------------|-------------------------------------|-------------------------------------|

E|-------------------------------------|----------------------------|-------------------------------------|
B|-------------------------------------|----------------------------|-------------------------------------|
G|-----------%---------%---------------|-5----4---------------------|-----------%---------%---------------|
D|-7---------%---------%---------------|-----------7----5----7------|-----------%---------%---------------|
A|------7---------7---------7----7-----|----------------------------|-5----7---------7---------7----7-----|
E|-------------------------------------|----------------------------|-------------------------------------|

E|-------------------------------------|-------------------------------------|-----------------------------------------|
B|-------------------------------------|-------------------------------------|-----------------------------------------|
G|-----------%---------%---------------|-----------%---------%---------------|-5----4--------------4-------------------|
D|-5---------%---------%---------------|-7---------%---------%---------------|-----------7----5---------7----5----0----|
A|------7---------7---------7----7-----|------7---------7---------7----7-----|-----------------------------------------|
E|-------------------------------------|-------------------------------------|-----------------------------------------|

E|-------------------------------------|-------------------------------------|-------------------------------------|
B|-------------------------------------|-------------------------------------|-------------------------------------|
G|-----------%---------%---------------|-----------%---------%---------------|-----------%---------%---------------|
D|-----------%---------%---------------|-5---------%---------%---------------|-7---------%---------%---------------|
A|-5----7---------7---------7----7-----|------7---------7---------7----7-----|------7---------7---------7----7-----|
E|-------------------------------------|-------------------------------------|-------------------------------------|

E|----------------------------|---------|---------|---------|---------|---------|---------|
B|----------------------------|---------|---------|---------|---------|---------|---------|
G|-5----4---------------------|-9-------|-9-------|-5-------|-7-------|-9-------|-9-------|
D|-----------7----5----7------|-9-------|-9-------|-5-------|-7-------|-9-------|-9-------|
A|----------------------------|-7-------|-7-------|-3-------|-5-------|-7-------|-7-------|
E|----------------------------|---------|---------|---------|---------|---------|---------|

E|---------|---------|---------|---------|---------|---------|---------|---------|---------|
B|---------|---------|---------|---------|---------|---------|---------|---------|---------|
G|-5-------|-7-------|-9-------|-9-------|-5-------|-7-------|-9-------|-9-------|-5-------|
D|-5-------|-7-------|-9-------|-9-------|-5-------|-7-------|-9-------|-9-------|-5-------|
A|-3-------|-5-------|-7-------|-7-------|-3-------|-5-------|-7-------|-7-------|-3-------|
E|---------|---------|---------|---------|---------|---------|---------|---------|---------|

E|---------|---------|---------|---------|---------|--------------------------|---------|
B|---------|---------|---------|---------|---------|--------------------------|---------|
G|-7-------|-12------|-12------|-8-------|-10------|-%------------5-----5-----|-5-------|
D|-7-------|-12------|-12------|-8-------|-10------|-%------5-----------------|---------|
A|-5-------|-10------|-10------|-6-------|-8-------|--------------------------|---------|
E|---------|---------|---------|---------|---------|--------------------------|---------|

E|---------|---------|---------|---------|---------------|---------|---------|---------|
B|---------|---------|---------|---------|---------------|---------|---------|---------|
G|-5-------|-5-------|-5-------|-5-------|-8-------8-----|-10------|-12------|-12------|
D|---------|---------|---------|---------|-8-------8-----|-10------|-12------|-12------|
A|---------|---------|---------|---------|-6-------6-----|-8-------|-10------|-10------|
E|---------|---------|---------|---------|---------------|---------|---------|---------|

E|---------|---------|---------------------------------|-----------------------------|
B|---------|---------|---------------------------------|-----------------------------|
G|-8-------|-10------|-----------------%---------------|-----------------7-----7-----|
D|-8-------|-10------|-----------------%---------------|-----------------7-----7-----|
A|-6-------|-8-------|-0-----3----3---------0----0-----|-3----2----0-----5-----5-----|
E|---------|---------|---------------------------------|-----------------------------|

E|---------------------------------|---------------------------------|---------------------------------|
B|---------------------------------|---------------------------------|---------------------------------|
G|-----------------%---------------|---------------------2-----2-----|-----------------%---------------|
D|-----------------%---------------|---------------------2-----2-----|-----------------%---------------|
A|-0-----3----3---------0----0-----|-3----2----0---------0-----0-----|-0-----3----3---------0----0-----|
E|---------------------------------|----------------3----------------|---------------------------------|

E|-----------------------------|---------------------------------|-------------------------------------|
B|-----------------------------|---------------------------------|-------------------------------------|
G|-----------------7-----7-----|-----------------%---------------|---------------------2----%----%-----|
D|-----------------7-----7-----|-----------------%---------------|---------------------2----%----%-----|
A|-3----2----0-----5-----5-----|-0-----3----3---------0----0-----|-3----2----0---------0---------------|
E|-----------------------------|---------------------------------|----------------3--------------------|

E|---------------------------------|-----------------------------|---------------------------------|
B|---------------------------------|-----------------------------|---------------------------------|
G|-----------------%---------------|-----------------7-----7-----|-----------------%---------------|
D|-----------------%---------------|-----------------7-----7-----|-----------------%---------------|
A|-0-----3----3---------0----0-----|-3----2----0-----5-----5-----|-0-----3----3---------0----0-----|
E|---------------------------------|-----------------------------|---------------------------------|

E|---------------------------------|---------------------------------|-----------------------------|
B|---------------------------------|---------------------------------|-----------------------------|
G|---------------------2-----2-----|-----------------%---------------|-----------------7-----7-----|
D|---------------------2-----2-----|-----------------%---------------|-----------------7-----7-----|
A|-3----2----0---------0-----0-----|-0-----3----3---------0----0-----|-3----2----0-----5-----5-----|
E|----------------3----------------|---------------------------------|-----------------------------|

E|---------------------------------|-------------------------------------|---------|
B|---------------------------------|-------------------------------------|---------|
G|-----------------%---------------|---------------------2----%----%-----|---------|
D|-----------------%---------------|---------------------2----%----%-----|-7-------|
A|-0-----3----3---------0----0-----|-3----2----0---------0---------------|-7-------|
E|---------------------------------|----------------3--------------------|-5-------|

E|---------|---------|---------|---------|---------|---------|---------|---------|---------|
B|---------|---------|---------|---------|---------|---------|---------|---------|---------|
G|---------|---------|---------|---------|---------|-5-------|-7-------|---------|---------|
D|-7-------|-3-------|-5-------|-7-------|-7-------|-5-------|-7-------|-7-------|-7-------|
A|-7-------|-3-------|-5-------|-7-------|-7-------|-3-------|-5-------|-7-------|-7-------|
E|-5-------|-1-------|-3-------|-5-------|-5-------|---------|---------|-5-------|-5-------|

E|---------|---------|---------|---------|---------|---------|-10---7---------10---9----7----10---7----|
B|---------|---------|---------|---------|---------|---------|-----------0-----------------------------|
G|---------|---------|---------|---------|-5-------|-7-------|-----------------------------------------|
D|-3-------|-5-------|-7-------|-7-------|-5-------|-7-------|-----------------------------------------|
A|-3-------|-5-------|-7-------|-7-------|-3-------|-5-------|-----------------------------------------|
E|-1-------|-3-------|-5-------|-5-------|---------|---------|-----------------------------------------|

E|------10---9----7----10---7---------10---|-9----7----10---7---------10---9----7----|
B|-0-----------------------------0---------|---------------------0-------------------|
G|-----------------------------------------|-----------------------------------------|
D|-----------------------------------------|-----------------------------------------|
A|-----------------------------------------|-----------------------------------------|
E|-----------------------------------------|-----------------------------------------|

E|-10---7---------10---9----7--------------|-----------------------------------------|
B|-----------0-------------------0----0----|-12---0----10---0----8----0----10---0----|
G|-----------------------------------------|-----------------------------------------|
D|-----------------------------------------|-----------------------------------------|
A|-----------------------------------------|-----------------------------------------|
E|-----------------------------------------|-----------------------------------------|

E|-----------------------------------------|-----------------------------------------|
B|-8----0----7----0----8----0----7----0----|-5----0----7----0----8----0----7----0----|
G|-----------------------------------------|-----------------------------------------|
D|-----------------------------------------|-----------------------------------------|
A|-----------------------------------------|-----------------------------------------|
E|-----------------------------------------|-----------------------------------------|

E|---------|------------------------|-----------------------------------------|----------------------------------------------|
B|---------|------------------------|-10---9----7---------9----7--------------|----------------------------------------------|
G|-6-------|--------------7---------|----------------9--------------9----9----|-9----9----7---------9----7-------------------|
D|---------|-9-------9---------10---|-----------------------------------------|----------------9--------------9----7---------|
A|---------|------------------------|-----------------------------------------|-----------------------------------------9----|
E|---------|------------------------|-----------------------------------------|----------------------------------------------|

E|-------------------------------------|-----------------------------------|---------------------------------|
B|-------------------------------------|-7---------------------------------|---------------------------------|
G|-------------------------------------|-------10----7-----9---------------|---------------------------------|
D|-------------------------------------|-------------------------9----8----|-7-------------------------------|
A|-5----5----5----5----5---------------|-----------------------------------|-------9----8----7-----7---7-----|
E|--------------------------7----5-----|-----------------------------------|---------------------------------|

E|-----------------------------------|-17------|---------------------------------|-----------------------------|
B|-------15---17---17----17----15----|---------|---------------------------------|-----------------------------|
G|-16--------------------------------|---------|-----------------%---------------|-----------------7-----7-----|
D|-----------------------------------|---------|-----------------%---------------|-----------------7-----7-----|
A|-----------------------------------|---------|-0-----3----3---------0----0-----|-3----2----0-----5-----5-----|
E|-----------------------------------|---------|---------------------------------|-----------------------------|

E|---------------------------------|---------------------------------|---------------------------------|
B|---------------------------------|---------------------------------|---------------------------------|
G|-----------------%---------------|---------------------2-----2-----|-----------------%---------------|
D|-----------------%---------------|---------------------2-----2-----|-----------------%---------------|
A|-0-----3----3---------0----0-----|-3----2----0---------0-----0-----|-0-----3----3---------0----0-----|
E|---------------------------------|----------------3----------------|---------------------------------|

E|-----------------------------|---------------------------------|-------------------------------------|
B|-----------------------------|---------------------------------|-------------------------------------|
G|-----------------7-----7-----|-----------------%---------------|---------------------2----%----%-----|
D|-----------------7-----7-----|-----------------%---------------|---------------------2----%----%-----|
A|-3----2----0-----5-----5-----|-0-----3----3---------0----0-----|-3----2----0---------0---------------|
E|-----------------------------|---------------------------------|----------------3--------------------|

E|---------------------------------|-----------------------------|---------------------------------|
B|---------------------------------|-----------------------------|---------------------------------|
G|-----------------%---------------|-----------------7-----7-----|-----------------%---------------|
D|-----------------%---------------|-----------------7-----7-----|-----------------%---------------|
A|-0-----3----3---------0----0-----|-3----2----0-----5-----5-----|-0-----3----3---------0----0-----|
E|---------------------------------|-----------------------------|---------------------------------|

E|---------------------------------|---------------------------------|-----------------------------|
B|---------------------------------|---------------------------------|-----------------------------|
G|---------------------2-----2-----|-----------------%---------------|-----------------7-----7-----|
D|---------------------2-----2-----|-----------------%---------------|-----------------7-----7-----|
A|-3----2----0---------0-----0-----|-0-----3----3---------0----0-----|-3----2----0-----5-----5-----|
E|----------------3----------------|---------------------------------|-----------------------------|

E|---------------------------------|-------------------------------------|-------------------------|
B|---------------------------------|-------------------------------------|-------------------------|
G|-----------------%---------------|---------------------2----%----%-----|-------------------------|
D|-----------------%---------------|---------------------2----%----%-----|-9------11---11----12----|
A|-0-----3----3---------0----0-----|-3----2----0---------0---------------|-7------9----9-----10----|
E|---------------------------------|----------------3--------------------|-------------------------|

E|-------------------------|-------------------------|-------------------------|-------------------------|
B|-------------------------|-------------------------|-------------------------|-------------------------|
G|-------------------------|-------------------------|-------------------------|-------------------------|
D|-14-----12---12----11----|-9------12---12----11----|-7------11---11----7-----|-9------11---11----12----|
A|-12-----10---10----9-----|-7------10---10----9-----|-5------9----9-----5-----|-7------9----9-----10----|
E|-------------------------|-------------------------|-------------------------|-------------------------|

E|-------------------------|-------------------------|---------|-------------------------|
B|-------------------------|-------------------------|---------|-------------------------|
G|-------------------------|-------------------------|---------|-------------------------|
D|-14-----12---12----11----|-9------12---12----11----|-7-------|-9------11---11----12----|
A|-12-----10---10----9-----|-7------10---10----9-----|-5-------|-7------9----9-----10----|
E|-------------------------|-------------------------|---------|-------------------------|

E|-------------------------|-------------------------|-------------------------|-------------------------|
B|-------------------------|-------------------------|-------------------------|-------------------------|
G|-------------------------|-------------------------|-------------------------|-------------------------|
D|-14-----12---12----11----|-9------12---12----11----|-7------11---11----7-----|-9------11---11----12----|
A|-12-----10---10----9-----|-7------10---10----9-----|-5------9----9-----5-----|-7------9----9-----10----|
E|-------------------------|-------------------------|-------------------------|-------------------------|

E|-------------------------|-------------------------|---------|-------------------------|
B|-------------------------|-------------------------|---------|-------------------------|
G|-------------------------|-------------------------|---------|-------------------------|
D|-14-----12---12----11----|-9------12---12----11----|-7-------|-------------------------|
A|-12-----10---10----9-----|-7------10---10----9-----|-5-------|-7------9----9-----10----|
E|-------------------------|-------------------------|---------|-5------7----7-----8-----|

E|-------------------------|-------------------------|-------------------------|-------------------------|
B|-------------------------|-------------------------|-------------------------|-------------------------|
G|-------------------------|-------------------------|-------------------------|-------------------------|
D|-------------------------|-------------------------|-------------------------|-------------------------|
A|-12-----10---10----9-----|-7------10---10----9-----|-5------9----9-----5-----|-7------9----9-----10----|
E|-10-----8----8-----7-----|-5------8----8-----7-----|-3------7----7-----3-----|-5------7----7-----8-----|

E|-------------------------|-------------------------|---------|-------------------------|
B|-------------------------|-------------------------|---------|-------------------------|
G|-------------------------|-------------------------|---------|-------------------------|
D|-------------------------|-------------------------|---------|-------------------------|
A|-12-----10---10----9-----|-7------10---10----9-----|-5-------|-7------9----9-----10----|
E|-10-----8----8-----7-----|-5------8----8-----7-----|-3-------|-5------7----7-----8-----|

E|-------------------------|-------------------------|-------------------------|-------------------------|
B|-------------------------|-------------------------|-------------------------|-------------------------|
G|-------------------------|-------------------------|-------------------------|-------------------------|
D|-------------------------|-------------------------|-------------------------|-------------------------|
A|-12-----10---10----9-----|-7------10---10----9-----|-5------9----9-----5-----|-7------9----9-----10----|
E|-10-----8----8-----7-----|-5------8----8-----7-----|-3------7----7-----3-----|-5------7----7-----8-----|

E|-------------------------|-------------------------|---------|-------------------------------------|
B|-------------------------|-------------------------|---------|-------------------------------------|
G|-------------------------|-------------------------|---------|-----------%---------%---------------|
D|-------------------------|-------------------------|---------|-----------%---------%---------------|
A|-12-----10---10----9-----|-7------10---10----9-----|-5-------|-5----7---------7---------7----7-----|
E|-10-----8----8-----7-----|-5------8----8-----7-----|-3-------|-------------------------------------|

E|-------------------------------------|-------------------------------------|-----------------------------------------|
B|-------------------------------------|-------------------------------------|-----------------------------------------|
G|-----------%---------%---------------|-----------%---------%---------------|-5----4--------------4-------------------|
D|-5---------%---------%---------------|-7---------%---------%---------------|-----------7----5---------7----5----0----|
A|------7---------7---------7----7-----|------7---------7---------7----7-----|-----------------------------------------|
E|-------------------------------------|-------------------------------------|-----------------------------------------|

E|-------------------------------------|-------------------------------------|-------------------------------------|
B|-------------------------------------|-------------------------------------|-------------------------------------|
G|-----------%---------%---------------|-----------%---------%---------------|-----------%---------%---------------|
D|-----------%---------%---------------|-5---------%---------%---------------|-7---------%---------%---------------|
A|-5----7---------7---------7----7-----|------7---------7---------7----7-----|------7---------7---------7----7-----|
E|-------------------------------------|-------------------------------------|-------------------------------------|

E|----------------------------|-------------------------------------|-------------------------------------|
B|----------------------------|-------------------------------------|-------------------------------------|
G|-5----4---------------------|-----------%---------%---------------|-----------%---------%---------------|
D|-----------7----5----7------|-----------%---------%---------------|-5---------%---------%---------------|
A|----------------------------|-5----7---------7---------7----7-----|------7---------7---------7----7-----|
E|----------------------------|-------------------------------------|-------------------------------------|

E|-------------------------------------|-----------------------------------------|-------------------------------------|
B|-------------------------------------|-----------------------------------------|-------------------------------------|
G|-----------%---------%---------------|-5----4--------------4-------------------|-----------%---------%---------------|
D|-7---------%---------%---------------|-----------7----5---------7----5----0----|-----------%---------%---------------|
A|------7---------7---------7----7-----|-----------------------------------------|-5----7---------7---------7----7-----|
E|-------------------------------------|-----------------------------------------|-------------------------------------|

E|-------------------------------------|-------------------------------------|----------------------------|
B|-------------------------------------|-------------------------------------|----------------------------|
G|-----------%---------%---------------|-----------%---------%---------------|-5----4---------------------|
D|-5---------%---------%---------------|-7---------%---------%---------------|-----------7----5----7------|
A|------7---------7---------7----7-----|------7---------7---------7----7-----|----------------------------|
E|-------------------------------------|-------------------------------------|----------------------------|

E|---------|---------|---------|---------|---------|---------|---------|---------|---------|
B|---------|---------|---------|---------|---------|---------|---------|---------|---------|
G|-9-------|-9-------|-5-------|-7-------|-9-------|-9-------|-5-------|-7-------|-9-------|
D|-9-------|-9-------|-5-------|-7-------|-9-------|-9-------|-5-------|-7-------|-9-------|
A|-7-------|-7-------|-3-------|-5-------|-7-------|-7-------|-3-------|-5-------|-7-------|
E|---------|---------|---------|---------|---------|---------|---------|---------|---------|

E|---------|---------|---------|---------|---------|---------|---------|---------|---------|
B|---------|---------|---------|---------|---------|---------|---------|---------|---------|
G|-9-------|-5-------|-7-------|-9-------|-9-------|-5-------|-7-------|-12------|-12------|
D|-9-------|-5-------|-7-------|-9-------|-9-------|-5-------|-7-------|-12------|-12------|
A|-7-------|-3-------|-5-------|-7-------|-7-------|-3-------|-5-------|-10------|-10------|
E|---------|---------|---------|---------|---------|---------|---------|---------|---------|

E|---------|---------|--------------------------|---------|---------|---------|---------|
B|---------|---------|--------------------------|---------|---------|---------|---------|
G|-8-------|-10------|-%------------5-----5-----|-5-------|-5-------|-5-------|-5-------|
D|-8-------|-10------|-%------5-----------------|---------|---------|---------|---------|
A|-6-------|-8-------|--------------------------|---------|---------|---------|---------|
E|---------|---------|--------------------------|---------|---------|---------|---------|

E|---------|---------------|---------|---------|---------|---------|---------|---------------------------------|
B|---------|---------------|---------|---------|---------|---------|---------|---------------------------------|
G|-5-------|-8-------8-----|-10------|-12------|-12------|-8-------|-10------|-5------4----5----4----5----4----|
D|---------|-8-------8-----|-10------|-12------|-12------|-8-------|-10------|---------------------------------|
A|---------|-6-------6-----|-8-------|-10------|-10------|-6-------|-8-------|---------------------------------|
E|---------|---------------|---------|---------|---------|---------|---------|---------------------------------|

E|--------------------|---------------------------------|-----------------------------------------|
B|-5-----5------------|---------------------------------|---------------------5-------------------|
G|-------------5------|-5------4----5----4----5----4----|-4----7----7----7---------7----5----4----|
D|--------------------|---------------------------------|-----------------------------------------|
A|--------------------|---------------------------------|-----------------------------------------|
E|--------------------|---------------------------------|-----------------------------------------|

E|---------------------------------|--------------------|---------------------------------|
B|---------------------------------|-5-----5------------|---------------------------------|
G|-5------4----5----4----5----4----|-------------5------|-5------4----5----4----5----4----|
D|---------------------------------|--------------------|---------------------------------|
A|---------------------------------|--------------------|---------------------------------|
E|---------------------------------|--------------------|---------------------------------|

E|-----------------------------------------|---------------------------------|--------------------|
B|---------------------5-------------------|---------------------------------|-5-----5------------|
G|-4----7----7----7---------7----5----4----|-5------4----5----4----5----4----|-------------5------|
D|-----------------------------------------|---------------------------------|--------------------|
A|-----------------------------------------|---------------------------------|--------------------|
E|-----------------------------------------|---------------------------------|--------------------|

E|---------------------------------|-----------------------------------------|---------------------------------|
B|---------------------------------|---------------------5-------------------|---------------------------------|
G|-5------4----5----4----5----4----|-4----7----7----7---------7----5----4----|-5------4----5----4----5----4----|
D|---------------------------------|-----------------------------------------|---------------------------------|
A|---------------------------------|-----------------------------------------|---------------------------------|
E|---------------------------------|-----------------------------------------|---------------------------------|

E|--------------------|---------------------------------|------------------------------------------------|
B|-5-----5------------|---------------------------------|------------------------------------------------|
G|-------------5------|-5------4----5----4----5----4----|-4----7----7----7----9----7---9---7---5----4----|
D|--------------------|---------------------------------|------------------------------------------------|
A|--------------------|---------------------------------|------------------------------------------------|
E|--------------------|---------------------------------|------------------------------------------------|

E|--------------------------------|-------------------------|--------------------|---------|
B|-8------6---8---6---5-----7-----|-5-----6-----5-----3-----|--------------------|---------|
G|-5------------------------------|-------------------------|-5------2-----%-----|-%-------|
D|--------------------------------|-------------------------|--------2-----%-----|-%-------|
A|--------------------------------|-------------------------|--------0-----------|---------|
E|--------------------------------|-------------------------|--------------------|---------|

E|---------|
B|---------|
G|-%-------|
D|-%-------|
A|---------|
E|---------|
Iron Maiden - Aces High (5)
Iron Maiden - Aces High (5).gp4