Iron Maiden - Aces High (Bassline)

Iron Maiden - Aces High (Bassline)

Iron Maiden



Title: Aces High
Album: Powerslave
Artist: Iron Maiden
Author: Steve Harris

Track 1: Bass
G|-11------|-11--11--11-----------|-7-------|-7---7---9------------|-11------|-11--11--11-----------|
D|---------|--------------%-------|---------|--------------%-------|---------|--------------%-------|
A|---------|--------------%-------|---------|--------------%-------|---------|--------------%-------|
E|---------|----------------------|---------|----------------------|---------|----------------------|

G|-7-------|-7---7---9-------9----|-9------9-----------|-------------------------------------|
D|---------|----------------------|-------------7------|-7----7----7----7----7----7-----7----|
A|---------|----------------------|--------------------|-------------------------------------|
E|---------|----------------------|--------------------|-------------------------------------|

G|-----------------------------|-----------------------------------------|-------------------------------------|
D|-7----7----7----7------------|-----------------------------------------|--------------------------7----7-----|
A|----------------------8------|-8----8----8----8----8----10---10---10---|-10---10---10---10---10--------------|
E|-----------------------------|-----------------------------------------|-------------------------------------|

G|-------------------------------------|-----------------------------|-----------------------------------------|
D|-7----7----7----7----7----7-----7----|-7----7----7----7------------|-----------------------------------------|
A|-------------------------------------|----------------------8------|-8----8----8----8----8----10---10---10---|
E|-------------------------------------|-----------------------------|-----------------------------------------|

G|-------------------------------------|-------------------------------------|-----------------------------|
D|--------------------------7----7-----|-7----7----7----7----7----7-----7----|-7----7----7----7------------|
A|-10---10---10---10---10--------------|-------------------------------------|----------------------8------|
E|-------------------------------------|-------------------------------------|-----------------------------|

G|-----------------------------------------|-------------------------------------|-------------------------------------|
D|-----------------------------------------|--------------------------7----7-----|-7----7----7----7----7----7-----7----|
A|-8----8----8----8----8----10---10---10---|-10---10---10---10---10--------------|-------------------------------------|
E|-----------------------------------------|-------------------------------------|-------------------------------------|

G|-----------------------------|-----------------------------------------|-----------------------------------------|
D|-7----7----7----7------------|-----------------------------------------|--------------------------12---14---14---|
A|----------------------8------|-8----8----8----8----8----10---10---10---|-10---10---10---10---10------------------|
E|-----------------------------|-----------------------------------------|-----------------------------------------|

G|---------------------------------|---------------------------------|-----------------------------|
D|-14----14---14----12---14---14---|-14----14---14----12---14---14---|-14----14---14----12----12---|
A|---------------------------------|---------------------------------|-----------------------------|
E|---------------------------------|---------------------------------|-----------------------------|

G|---------------------------------|---------------------------------|---------------------------------|
D|-16----14---12----12---14---14---|-14----14---14----12---14---14---|-14----14---14----12---14---14---|
A|---------------------------------|---------------------------------|---------------------------------|
E|---------------------------------|---------------------------------|---------------------------------|

G|-----------------------------|---------------------------------|---------------------------------|
D|-14----14---14----12----12---|-12----12---12----12---14---14---|-14----14---14----12---14---14---|
A|-----------------------------|---------------------------------|---------------------------------|
E|-----------------------------|---------------------------------|---------------------------------|

G|---------------------------------|-----------------------------|---------------------------------|
D|-14----14---14----12---14---14---|-14----14---14----12----12---|-16----14---12----12---14---14---|
A|---------------------------------|-----------------------------|---------------------------------|
E|---------------------------------|-----------------------------|---------------------------------|

G|---------------------------------|---------------------------------|-----------------------------|
D|-14----14---14----12---14---14---|-14----14---14----12---14---14---|-14----14---14----12----12---|
A|---------------------------------|---------------------------------|-----------------------------|
E|---------------------------------|---------------------------------|-----------------------------|

G|---------------------------------|---------------------------------|---------------------------------|
D|-12----12---12-------------------|---------------------------------|---------------------------------|
A|------------------10---12---12---|-12----12---12----10---12---12---|-12----12---12----10---12---12---|
E|---------------------------------|---------------------------------|---------------------------------|

G|-----------------------------|---------------------------------|---------------------------------|
D|-----------------------------|---------------------------------|---------------------------------|
A|-12----12---12----10----10---|-14----12---10----10---12---12---|-12----12---12----10---12---12---|
E|-----------------------------|---------------------------------|---------------------------------|

G|---------------------------------|-----------------------------|---------------------------------|
D|---------------------------------|-----------------------------|---------------------------------|
A|-12----12---12----10---12---12---|-12----12---12----10----10---|-10----10---10----10---12---12---|
E|---------------------------------|-----------------------------|---------------------------------|

G|---------------------------------|---------------------------------|-----------------------------|
D|---------------------------------|---------------------------------|-----------------------------|
A|-12----12---12----10---12---12---|-12----12---12----10---12---12---|-12----12---12----10----10---|
E|---------------------------------|---------------------------------|-----------------------------|

G|---------------------------------|---------------------------------|---------------------------------|
D|---------------------------------|---------------------------------|---------------------------------|
A|-14----12---10----10---12---12---|-12----12---12----10---12---12---|-12----12---12----10---12---12---|
E|---------------------------------|---------------------------------|---------------------------------|

G|-----------------------------|---------------------------------|-------------------------------------|
D|-----------------------------|------------------12---14---%----|-14---%----14---14----17---14---%----|
A|-12----12---12----10----10---|-10----10---10--------------%----|------%-------------------------%----|
E|-----------------------------|---------------------------------|-------------------------------------|

G|----------------------14-------------|----------------------17---16---14---|------16---14----------------------------|
D|-14---%----14---14---------14---%----|-14---%----14---14-------------------|-17-------------17-------------14---%----|
A|------%-------------------------%----|------%------------------------------|---------------------17---17--------%----|
E|-------------------------------------|-------------------------------------|-----------------------------------------|

G|-------------------------------------|----------------------14-------------|----------------------17---16---14---|
D|-14---%----14---14----17---14---%----|-14---%----14---14---------14---%----|-14---%----14---14-------------------|
A|------%-------------------------%----|------%-------------------------%----|------%------------------------------|
E|-------------------------------------|-------------------------------------|-------------------------------------|

G|------14--------------------|-------------------------------------|----------------------14-------------|
D|-17----------12---14---%----|-14---%----14---14----17---14---%----|-14---%----14---14---------14---%----|
A|-----------------------%----|------%-------------------------%----|------%-------------------------%----|
E|----------------------------|-------------------------------------|-------------------------------------|

G|----------------------17---16---14---|------16---14----------------------------|-------------------------------------|
D|-14---%----14---14-------------------|-17-------------17-------------14---%----|-14---%----14---14----17---14---%----|
A|------%------------------------------|---------------------17---17--------%----|------%-------------------------%----|
E|-------------------------------------|-----------------------------------------|-------------------------------------|

G|----------------------14-------------|----------------------17---16---14---|------14----------------|
D|-14---%----14---14---------14---%----|-14---%----14---14-------------------|-17----------14----14---|
A|------%-------------------------%----|------%------------------------------|------------------------|
E|-------------------------------------|-------------------------------------|------------------------|

G|-----------------------------|-------------------------|-----------------------------|
D|-14----14---14----14---14----|-14-----12----10----10---|-10----10---10----12----12---|
A|-----------------------------|-------------------------|-----------------------------|
E|-----------------------------|-------------------------|-----------------------------|

G|-----------------------------|-----------------------------|-------------------------|
D|-12----12---12----14----14---|-14----14---14----14---14----|-14-----12----10----10---|
A|-----------------------------|-----------------------------|-------------------------|
E|-----------------------------|-----------------------------|-------------------------|

G|-----------------------------|-----------------------------|-----------------------------|
D|-10----10---10----12----12---|-12----12---12----14----14---|-14----14---14----14---14----|
A|-----------------------------|-----------------------------|-----------------------------|
E|-----------------------------|-----------------------------|-----------------------------|

G|-------------------------|-----------------------------|-----------------------------|
D|-14-----12----10----10---|-10----10---10----12----12---|-12----12---12----14----14---|
A|-------------------------|-----------------------------|-----------------------------|
E|-------------------------|-----------------------------|-----------------------------|

G|-----------------------------|-------------------------|-----------------------------|
D|-14----14---14----14---14----|-14-----12----10----10---|-10----10---10----12----12---|
A|-----------------------------|-------------------------|-----------------------------|
E|-----------------------------|-------------------------|-----------------------------|

G|-----------------------------|-----------------------------|-------------------------|
D|-12----12---12---------------|-----------------------------|-------------------------|
A|------------------10----10---|-10----10---10----10---10----|-10-----8----------------|
E|-----------------------------|-----------------------------|--------------11----11---|

G|-----------------------------|-----------------------------|-----------------------------|
D|-----------------------------|-----------------------------|-----------------------------|
A|------------------8-----8----|-8-----8----8-----10----10---|-10----10---10----10---10----|
E|-11----11---11---------------|-----------------------------|-----------------------------|

G|-------------------------|-----------------------------|-----------------------------|
D|-------------------------|-----------------------------|-----------------------------|
A|-10-----8----------------|------------------8-----8----|-8-----8----8-----10----10---|
E|--------------11----11---|-11----11---11---------------|-----------------------------|

G|-----------------------------|-------------------------|-----------------------------|
D|-----------------------------|-------------------------|-----------------------------|
A|-10----10---10----10---10----|-10-----8----------------|------------------8-----8----|
E|-----------------------------|--------------11----11---|-11----11---11---------------|

G|-----------------------------|-----------------------------|-------------------------|
D|-----------------------------|-----------------------------|-------------------------|
A|-8-----8----8-----10----10---|-10----10---10----10---10----|-10-----8----------------|
E|-----------------------------|-----------------------------|--------------11----11---|

G|-----------------------------|-----------------------------|-------------------------------------|
D|-----------------------------|------------------7-----10---|-10---%----7----7-----10---9----7----|
A|------------------8-----8----|-8-----8----8----------------|------%------------------------------|
E|-11----11---11---------------|-----------------------------|-------------------------------------|

G|------7-----7----------------|-------------------------------------|-----------------------------|
D|-%----------------7-----10---|-10---%----7----7-----10---9----7----|------7-----7-----7-----10---|
A|-%---------------------------|------%------------------------------|-10--------------------------|
E|-----------------------------|-------------------------------------|-----------------------------|

G|-------------------------------------|------7-----7----------------|-------------------------------------|
D|-10---%----7----7-----10---9----7----|-7----------------7-----10---|-10---%----7----7-----10---9----7----|
A|------%------------------------------|-----------------------------|------%------------------------------|
E|-------------------------------------|-----------------------------|-------------------------------------|

G|-----------------------------|-------------------------------------|------7-----7----------------|
D|-5----7----%------7-----10---|-10---%----7----7-----10---9----7----|-7----------------7-----10---|
A|-----------%-----------------|------%------------------------------|-----------------------------|
E|-----------------------------|-------------------------------------|-----------------------------|

G|-------------------------------------|-----------------------------|-------------------------------------|
D|-10---%----7----7-----10---9----7----|------7-----7-----7-----10---|-10---%----7----7-----10---9----7----|
A|------%------------------------------|-10--------------------------|------%------------------------------|
E|-------------------------------------|-----------------------------|-------------------------------------|

G|------7-----7----------------|-------------------------------------|-----------------------------|
D|-7----------------7-----10---|-10---%----7----7-----10---9----7----|-5----7----%------7-----7----|
A|-----------------------------|------%------------------------------|-----------%-----------------|
E|-----------------------------|-------------------------------------|-----------------------------|

G|---------------------------------|-----------------------------|-----------------------------|
D|-7-----7----7-----7----7----7----|-7----7-----5----------------|-----------------------------|
A|---------------------------------|------------------8-----8----|-8-----8----8-----10----10---|
E|---------------------------------|-----------------------------|-----------------------------|

G|-----------------------------|---------------------------------|-----------------------------|
D|------------------7-----7----|-7-----7----7-----7----7----7----|-7----7----------------------|
A|-10----10---10---------------|---------------------------------|------------10----8-----8----|
E|-----------------------------|---------------------------------|-----------------------------|

G|-----------------------------|-----------------------------|---------------------------------|
D|-----------------------------|------------------7-----7----|-7-----7----7-----7----7----7----|
A|-8-----8----8-----10----10---|-10----10---10---------------|---------------------------------|
E|-----------------------------|-----------------------------|---------------------------------|

G|-----------------------------|-----------------------------|-----------------------------|
D|-7----7----------------------|-----------------------------|------------------7-----7----|
A|------------10----8-----8----|-8-----8----8-----10----10---|-10----10---10---------------|
E|-----------------------------|-----------------------------|-----------------------------|

G|---------------------------------|-----------------------------|-----------------------------|
D|-7-----7----7-----7----7----7----|-7----7----------------------|-----------------------------|
A|---------------------------------|------------10----8-----8----|-8-----8----8-----10----10---|
E|---------------------------------|-----------------------------|-----------------------------|

G|-----------------------------|---------------------------------|-----------------------------|
D|------------------9-----9----|-9-----9----9-----9----9----9----|-9----9-----7----------------|
A|-10----10---10---------------|---------------------------------|------------------10----10---|
E|-----------------------------|---------------------------------|-----------------------------|

G|-----------------------------|-----------------------------|---------------------------------|
D|------------------7-----7----|-7-----7----7-----9-----9----|-9-----9----9-----9----9----9----|
A|-10----10---10---------------|-----------------------------|---------------------------------|
E|-----------------------------|-----------------------------|---------------------------------|

G|-----------------------------|-----------------------------|-----------------------------|
D|-9----9-----7----------------|------------------7-----7----|-7-----7----7-----9-----9----|
A|------------------10----10---|-10----10---10---------------|-----------------------------|
E|-----------------------------|-----------------------------|-----------------------------|

G|---------------------------------|-----------------------------|-----------------------------|
D|-9-----9----9-----9----9----9----|-9----9-----7----------------|------------------7-----7----|
A|---------------------------------|------------------10----10---|-10----10---10---------------|
E|---------------------------------|-----------------------------|-----------------------------|

G|-----------------------------|---------------------------------|-----------------------------|
D|-7-----7----7-----9-----9----|-9-----9----9-----9----9----9----|-9----9-----7----------------|
A|-----------------------------|---------------------------------|------------------10----10---|
E|-----------------------------|---------------------------------|-----------------------------|

G|-----------------------------|-----------------------------|-------------------------------------|
D|------------------7-----7----|-7-----7----7-----7-----10---|-10---%----7----7-----10---9----7----|
A|-10----10---10---------------|-----------------------------|------%------------------------------|
E|-----------------------------|-----------------------------|-------------------------------------|

G|-7----7-----7----------------|-------------------------------------|-----------------------------|
D|-7----------------7-----10---|-10---%----7----7-----10---9----7----|------7-----7-----7-----10---|
A|-----------------------------|------%------------------------------|-10--------------------------|
E|-----------------------------|-------------------------------------|-----------------------------|

G|-------------------------------------|-7----7-----7----------------|-------------------------------------|
D|-10---%----7----7-----10---9----7----|-7----------------7-----10---|-10---%----7----7-----10---9----7----|
A|------%------------------------------|-----------------------------|------%------------------------------|
E|-------------------------------------|-----------------------------|-------------------------------------|

G|-----------------------------|-------------------------------------|-7----7-----7----------------|
D|------7----%------7-----10---|-10---%----7----7-----10---9----7----|-7----------------7-----10---|
A|-10--------%-----------------|------%------------------------------|-----------------------------|
E|-----------------------------|-------------------------------------|-----------------------------|

G|-------------------------------------|-----------------------------|-------------------------------------|
D|-10---%----7----7-----10---9----7----|------7-----7-----7-----10---|-10---%----7----7-----10---9----7----|
A|------%------------------------------|-10--------------------------|------%------------------------------|
E|-------------------------------------|-----------------------------|-------------------------------------|

G|------7-----7----------------|-------------------------------------|---------------------------------|
D|-7----------------7-----10---|-10---%----7----7-----10---9----7----|-5----7----%------12---14---14---|
A|-----------------------------|------%------------------------------|-----------%---------------------|
E|-----------------------------|-------------------------------------|---------------------------------|

G|---------------------------------|---------------------------------|-----------------------------|
D|-14----14---14----12---14---14---|-14----14---14----12---14---14---|-14----14---14----12----12---|
A|---------------------------------|---------------------------------|-----------------------------|
E|---------------------------------|---------------------------------|-----------------------------|

G|---------------------------------|---------------------------------|---------------------------------|
D|-16----14---12----12---14---14---|-14----14---14----12---14---14---|-14----14---14----12---14---14---|
A|---------------------------------|---------------------------------|---------------------------------|
E|---------------------------------|---------------------------------|---------------------------------|

G|-----------------------------|---------------------------------|---------------------------------|
D|-14----14---14----12----12---|-12----12---12----12---14---14---|-14----14---14----12---14---14---|
A|-----------------------------|---------------------------------|---------------------------------|
E|-----------------------------|---------------------------------|---------------------------------|

G|---------------------------------|-----------------------------|---------------------------------|
D|-14----14---14----12---14---14---|-14----14---14----12----12---|-16----14---12----12---14---14---|
A|---------------------------------|-----------------------------|---------------------------------|
E|---------------------------------|-----------------------------|---------------------------------|

G|---------------------------------|---------------------------------|-----------------------------|
D|-14----14---14----12---14---14---|-14----14---14----12---14---14---|-14----14---14----12----12---|
A|---------------------------------|---------------------------------|-----------------------------|
E|---------------------------------|---------------------------------|-----------------------------|

G|---------------------------------|---------------------------------|---------------------------------|
D|-12----12---12-------------------|---------------------------------|---------------------------------|
A|------------------10---12---12---|-12----12---12----10---12---12---|-12----12---12----10---12---12---|
E|---------------------------------|---------------------------------|---------------------------------|

G|-----------------------------|---------------------------------|---------------------------------|
D|-----------------------------|---------------------------------|---------------------------------|
A|-12----12---12----10----10---|-14----12---10----10---12---12---|-12----12---12----10---12---12---|
E|-----------------------------|---------------------------------|---------------------------------|

G|---------------------------------|-----------------------------|---------------------------------|
D|---------------------------------|-----------------------------|---------------------------------|
A|-12----12---12----10---12---12---|-12----12---12----10----10---|-10----10---10----10---12---12---|
E|---------------------------------|-----------------------------|---------------------------------|

G|---------------------------------|---------------------------------|-----------------------------|
D|---------------------------------|---------------------------------|-----------------------------|
A|-12----12---12----10---12---12---|-12----12---12----10---12---12---|-12----12---12----10----10---|
E|---------------------------------|---------------------------------|-----------------------------|

G|---------------------------------|---------------------------------|---------------------------------|
D|---------------------------------|---------------------------------|---------------------------------|
A|-14----12---10----10---12---12---|-12----12---12----10---12---12---|-12----12---12----10---12---12---|
E|---------------------------------|---------------------------------|---------------------------------|

G|-----------------------------|---------------------------------|-------------------------------------|
D|-----------------------------|------------------12---14---%----|-14---%----14---14----17---14---%----|
A|-12----12---12----10----10---|-10----10---10--------------%----|------%-------------------------%----|
E|-----------------------------|---------------------------------|-------------------------------------|

G|----------------------14-------------|----------------------17---16---14---|------16---14----------------------------|
D|-14---%----14---14---------14---%----|-14---%----14---14-------------------|-17-------------17-------------14---%----|
A|------%-------------------------%----|------%------------------------------|---------------------17---17--------%----|
E|-------------------------------------|-------------------------------------|-----------------------------------------|

G|-------------------------------------|----------------------14-------------|----------------------17---16---14---|
D|-14---%----14---14----17---14---%----|-14---%----14---14---------14---%----|-14---%----14---14-------------------|
A|------%-------------------------%----|------%-------------------------%----|------%------------------------------|
E|-------------------------------------|-------------------------------------|-------------------------------------|

G|------14--------------------|-------------------------------------|----------------------14-------------|
D|-17----------12---14---%----|-14---%----14---14----17---14---%----|-14---%----14---14---------14---%----|
A|-----------------------%----|------%-------------------------%----|------%-------------------------%----|
E|----------------------------|-------------------------------------|-------------------------------------|

G|----------------------17---16---14---|------16---14----------------------------|-------------------------------------|
D|-14---%----14---14-------------------|-17-------------17-------------14---%----|-14---%----14---14----17---14---%----|
A|------%------------------------------|---------------------17---17--------%----|------%-------------------------%----|
E|-------------------------------------|-----------------------------------------|-------------------------------------|

G|----------------------14-------------|----------------------17---16---14---|------14----------------|
D|-14---%----14---14---------14---%----|-14---%----14---14-------------------|-17----------14----14---|
A|------%-------------------------%----|------%------------------------------|------------------------|
E|-------------------------------------|-------------------------------------|------------------------|

G|-----------------------------|-------------------------|------------------7-----7----|
D|-14----14---14----14---14----|-14-----12----10----10---|-10----10---10---------------|
A|-----------------------------|-------------------------|-----------------------------|
E|-----------------------------|-------------------------|-----------------------------|

G|-7-----7----7-----9-----9----|-9-----9----9-----9----9-----|-9------7----------------|
D|-----------------------------|-----------------------------|--------------10----10---|
A|-----------------------------|-----------------------------|-------------------------|
E|-----------------------------|-----------------------------|-------------------------|

G|------------------7-----7----|-7-----7----7-----9-----9----|-9-----9----9-----9----9-----|
D|-10----10---10---------------|-----------------------------|-----------------------------|
A|-----------------------------|-----------------------------|-----------------------------|
E|-----------------------------|-----------------------------|-----------------------------|

G|-9------7----------------|------------------7-----7----|-7-----7----7-----9-----9----|
D|--------------10----10---|-10----10---10---------------|-----------------------------|
A|-------------------------|-----------------------------|-----------------------------|
E|-------------------------|-----------------------------|-----------------------------|

G|-9-----9----9-----9----9-----|-9------7----------------|------------------7-----7----|
D|-----------------------------|--------------10----10---|-10----10---10---------------|
A|-----------------------------|-------------------------|-----------------------------|
E|-----------------------------|-------------------------|-----------------------------|

G|-7-----7----7----------------|-----------------------------|-------------------------|
D|-----------------------------|-----------------------------|-------------------------|
A|------------------10----10---|-10----10---10----10---10----|-10-----8----------------|
E|-----------------------------|-----------------------------|--------------11----11---|

G|-----------------------------|-----------------------------|-----------------------------|
D|-----------------------------|-----------------------------|-----------------------------|
A|------------------8-----8----|-8-----8----8-----10----10---|-10----10---10----10---10----|
E|-11----11---11---------------|-----------------------------|-----------------------------|

G|-------------------------|-----------------------------|-----------------------------|
D|-------------------------|-----------------------------|-----------------------------|
A|-10-----8----------------|------------------8-----8----|-8-----8----8-----10----10---|
E|--------------11----11---|-11----11---11---------------|-----------------------------|

G|-----------------------------|-------------------------|-----------------------------|
D|-----------------------------|-------------------------|-----------------------------|
A|-10----10---10----10---10----|-10-----8----------------|------------------8-----8----|
E|-----------------------------|--------------11----11---|-11----11---11---------------|

G|-----------------------------|-----------------------------|-------------------------|
D|-----------------------------|-----------------------------|-------------------------|
A|-8-----8----8-----10----10---|-10----10---10----10---10----|-10-----8----------------|
E|-----------------------------|-----------------------------|--------------11----11---|

G|-----------------------------|-----------------------------|-------------------------------------|
D|-----------------------------|------------------7----7-----|-7----7----7----7----7----7-----7----|
A|------------------8-----8----|-8-----8----8----------------|-------------------------------------|
E|-11----11---11---------------|-----------------------------|-------------------------------------|

G|-7---------------------------|-----------------------------------------|-------------------------------------|
D|-7----7----7----7------------|-----------------------------------------|--------------------------7----7-----|
A|----------------------8------|-8----8----8----8----8----10---10---10---|-10---10---10---10---10--------------|
E|-----------------------------|-----------------------------------------|-------------------------------------|

G|-------------------------------------|-----------------------------|-----------------------------------------|
D|-7----7----7----7----7----7-----7----|-7----7----7----7------------|-----------------------------------------|
A|-------------------------------------|----------------------8------|-8----8----8----8----8----10---10---10---|
E|-------------------------------------|-----------------------------|-----------------------------------------|

G|-------------------------------------|-------------------------------------|-----------------------------|
D|--------------------------7----7-----|-7----7----7----7----7----7-----7----|-7----7----7----7------------|
A|-10---10---10---10---10--------------|-------------------------------------|----------------------8------|
E|-------------------------------------|-------------------------------------|-----------------------------|

G|-----------------------------------------|-------------------------------------|-------------------------------------|
D|-----------------------------------------|--------------------------7----7-----|-7----7----7----7----7----7-----7----|
A|-8----8----8----8----8----10---10---10---|-10---10---10---10---10--------------|-------------------------------------|
E|-----------------------------------------|-------------------------------------|-------------------------------------|

G|-----------------------------|--------------------|---------------------------|-------------------------12--12--14--12--14-----|
D|-7----7----7----7------------|--------7-----------|---------------------------|-------------------------------------0---0------|
A|----------------------8------|-8------8----10-----|-10-----12---12----12--12--|-12--12--12--12--12--12-------------------------|
E|-----------------------------|--------------------|---------------------------|------------------------------------------------|

G|-14----14------12--12--12------------------------------|---------------------------|
D|-----------%---------------12--------------------------|---------------%------%----|
A|-----------%---------------0---12--12--12--12--12--12--|-12--12--12----%------%----|
E|-------------------------------0-----------------------|---------------------------|
Iron Maiden - Aces High (Bassline)
Iron Maiden - Aces High (Bassline).gp3