Iron Maiden - Aces High (Guitar Solos)

Iron Maiden - Aces High (Guitar Solos)

Iron Maiden



Title: Aces High
Album: Powerslave
Artist: Iron Maiden
Author: Steve Harris

Track 1: Dave Murray
E|-----------------------------------------------|--------------------------------------------------|
B|-----------------------------------------------|--------------------------------------------------|
G|-----------------------------------------------|--------------------------------------------------|
D|-------------------------------------7----7----|----------------------------------------2----2----|
A|-0----3---3----0---0----3---2---0----5----5----|-0----3---3----0---0----3---2---0-------0----0----|
E|-----------------------------------------------|------------------------------------3-------------|

E|-----------------------------------------------|--------------------------------------------------|
B|-----------------------------------------------|--------------------------------------------------|
G|-----------------------------------------------|---------------------------------------------%----|
D|-------------------------------------7----7----|----------------------------------------2----%----|
A|-0----3---3----0---0----3---2---0----5----5----|-0----3---3----0---0----3---2---0-------0---------|
E|-----------------------------------------------|------------------------------------3-------------|

E|-----------------------------------------------|--------------------------------------------------|
B|-----------------------------------------------|--------------------------------------------------|
G|-----------------------------------------------|--------------------------------------------------|
D|-------------------------------------7----7----|----------------------------------------2----2----|
A|-0----3---3----0---0----3---2---0----5----5----|-0----3---3----0---0----3---2---0-------0----0----|
E|-----------------------------------------------|------------------------------------3-------------|

E|-----------------------------------------------|--------------------------------------------------|
B|-----------------------------------------------|--------------------------------------------------|
G|-----------------------------------------------|---------------------------------------------%----|
D|-------------------------------------7----7----|----------------------------------------2----%----|
A|-0----3---3----0---0----3---2---0----5----5----|-0----3---3----0---0----3---2---0-------0---------|
E|-----------------------------------------------|------------------------------------3-------------|

E|--------------------------------------------------------------|-------------------------------------------------------|
B|--------------------------------------------------------------|-----------------------------------------------6---8---|
G|-7----7---7---7---7---7---7---7---7---7---7---7---7---7---7---|-7---7---7---7---7---7---7---7---7-----7---7-----------|
D|--------------------------------------------------------------|-------------------------------------------------------|
A|--------------------------------------------------------------|-------------------------------------------------------|
E|--------------------------------------------------------------|-------------------------------------------------------|

E|-------------------------------------|----------------------------------------0----|
B|-8------8----8---5-------5-----------|---------------------------------------------|
G|---------------------7-------7---5---|-7---5-------5-------------------------------|
D|-------------------------------------|---------7-------7---5---7---5---------------|
A|-------------------------------------|---------------------------------7-----------|
E|-------------------------------------|---------------------------------------------|

E|-8---5---0---7---5---0---8---5---0---7---5---0---8---5---0---7---5---0---8---5---0---7---5---0---|
B|-------------------------------------------------------------------------------------------------|
G|-------------------------------------------------------------------------------------------------|
D|-------------------------------------------------------------------------------------------------|
A|-------------------------------------------------------------------------------------------------|
E|-------------------------------------------------------------------------------------------------|

E|-8---5---0---7---5---0---8---5---0---7---5---0---5----5----5------------|---------------------------------------------------------12--15--12--15----15---15-|
B|------------------------------------------------------------------------|-----------------------------12--13--12------12--13--15----------------------------|
G|----------------------------------------------------------------5---12--|-14--12--14--12------12--14--------------14----------------------------------------|
D|------------------------------------------------------------------------|-----------------14----------------------------------------------------------------|
A|------------------------------------------------------------------------|-----------------------------------------------------------------------------------|
E|------------------------------------------------------------------------|-----------------------------------------------------------------------------------|

E|-15------|---------|---------------|---------|---------------|---------|---------------|
B|---------|---------|---------------|---------|---------------|---------|---------------|
G|---------|---------|---------------|---------|---------------|---------|---------------|
D|---------|-9-------|-5------7------|-9-------|-5------7------|-9-------|-5------7------|
A|---------|-9-------|-5------7------|-9-------|-5------7------|-9-------|-5------7------|
E|---------|-7-------|-3------5------|-7-------|-3------5------|-7-------|-3------5------|

E|---------|---------------|-----------------------------------------------|--------------------------------------------------|
B|---------|---------------|-----------------------------------------------|--------------------------------------------------|
G|---------|---------------|-----------------------------------------------|--------------------------------------------------|
D|-9-------|-5------7------|-------------------------------------7----7----|----------------------------------------2----2----|
A|-9-------|-5------7------|-0----3---3----0---0----3---2---0----5----5----|-0----3---3----0---0----3---2---0-------0----0----|
E|-7-------|-3------5------|-----------------------------------------------|------------------------------------3-------------|

E|-----------------------------------------------|--------------------------------------------------|
B|-----------------------------------------------|--------------------------------------------------|
G|-----------------------------------------------|---------------------------------------------%----|
D|-------------------------------------7----7----|----------------------------------------2----%----|
A|-0----3---3----0---0----3---2---0----5----5----|-0----3---3----0---0----3---2---0-------0---------|
E|-----------------------------------------------|------------------------------------3-------------|

E|-----------------------------------------------|--------------------------------------------------|
B|-----------------------------------------------|--------------------------------------------------|
G|-----------------------------------------------|--------------------------------------------------|
D|-------------------------------------7----7----|----------------------------------------2----2----|
A|-0----3---3----0---0----3---2---0----5----5----|-0----3---3----0---0----3---2---0-------0----0----|
E|-----------------------------------------------|------------------------------------3-------------|

E|-----------------------------------------------|--------------------------------------------------|
B|-----------------------------------------------|--------------------------------------------------|
G|-----------------------------------------------|---------------------------------------------%----|
D|-------------------------------------7----7----|----------------------------------------2----%----|
A|-0----3---3----0---0----3---2---0----5----5----|-0----3---3----0---0----3---2---0-------0---------|
E|-----------------------------------------------|------------------------------------3-------------|

E|---------|
B|---------|
G|-%-------|
D|-%-------|
A|---------|
E|---------|
Iron Maiden - Aces High (Guitar Solos)
Iron Maiden - Aces High (Guitar Solos).gp4