Iron Maiden - Afraid To Shoot Strangers

Iron Maiden



Title: Afraid To Shoot Strangers
Album: 
Artist: 
Author: Iron Maiden

Track 1: Clean Guitar 1
E|--------------------------------------------------------------|---------------------------------------------------|
B|-------------7----9----7---9---7------------------------------|-12-----10---8---10--7-----------------------------|
G|-9------9--------------------------9----8----6---8---6--------|--------------------------9----7----6--------------|
D|---------------------------------------------------------9----|-----------------------------------------9----7----|
A|--------------------------------------------------------------|---------------------------------------------------|
E|--------------------------------------------------------------|---------------------------------------------------|

E|---------------------------------------|----------------|--------------------------------------------------------------|
B|---------------------------------------|----------------|-------------7----9----7---9---7------------------------------|
G|-6-------6----6----6----6----4---------|----------------|-9------9--------------------------9----8----6---8---6--------|
D|----------------------------------6----|-9-------9------|---------------------------------------------------------9----|
A|---------------------------------------|----------------|--------------------------------------------------------------|
E|---------------------------------------|----------------|--------------------------------------------------------------|

E|---------------------------------------------------|---------------------------------------|
B|-12-----10---8---10--7-----------------------------|---------------------------------------|
G|--------------------------9----7----6--------------|-6-------6----6----6----6----4---------|
D|-----------------------------------------9----7----|----------------------------------6----|
A|---------------------------------------------------|---------------------------------------|
E|---------------------------------------------------|---------------------------------------|

E|----------------|-------------------------------------------------------------------------------------------------|
B|----------------|-------------------------------------------------------------------------------------------------|
G|----------------|-------------------------------------------------------------------------------------------------|
D|-9-------9------|---------2-------2---------------2-------2---------------2-------2---------------2-------2-------|
A|----------------|-----2-------2-------2-------2-------2-------2-------2-------2-------2-------2-------2-------2---|
E|----------------|-0-----------------------0-----------------------0-----------------------0-----------------------|

E|-------------------------------------------------------------------------------------------------|
B|-------------------------------------------------------------------------------------------------|
G|---------6-------6---------------6-------6---------------6-------6---------------6-------6-------|
D|-----6-------6-------6-------6-------6-------6-------6-------6-------6-------6-------6-------6---|
A|-4-----------------------4-----------------------4-----------------------4-----------------------|
E|-------------------------------------------------------------------------------------------------|

E|-------------------------------------------------------------------------------------------------|
B|-------------------------------------------------------------------------------------------------|
G|---------7-------7---------------7-------7---------------7-------7---------------7-------7-------|
D|-----7-------7-------7-------7-------7-------7-------7-------7-------7-------7-------7-------7---|
A|-5-----------------------5-----------------------5-----------------------5-----------------------|
E|-------------------------------------------------------------------------------------------------|

E|-------------------------------------------------------------------------------------------------|
B|-------------------------------------------------------------------------------------------------|
G|---------4-------4---------------4-------4---------------4-------4---------------4-------4-------|
D|-----4-------4-------4-------4-------4-------4-------4-------4-------4-------4-------4-------4---|
A|-2-----------------------2-----------------------2-----------------------2-----------------------|
E|-------------------------------------------------------------------------------------------------|

E|-------------------------------------------------------------------------------------------------|
B|-------------------------------------------------------------------------------------------------|
G|-------------------------------------------------------------------------------------------------|
D|---------2-------2---------------2-------2---------------2-------2---------------2-------2-------|
A|-----2-------2-------2-------2-------2-------2-------2-------2-------2-------2-------2-------2---|
E|-0-----------------------0-----------------------0-----------------------0-----------------------|

E|-------------------------------------------------------------------------------------------------|
B|-------------------------------------------------------------------------------------------------|
G|---------6-------6---------------6-------6---------------6-------6---------------6-------6-------|
D|-----6-------6-------6-------6-------6-------6-------6-------6-------6-------6-------6-------6---|
A|-4-----------------------4-----------------------4-----------------------4-----------------------|
E|-------------------------------------------------------------------------------------------------|

E|-------------------------------------------------------------------------------------------------|
B|-------------------------------------------------------------------------------------------------|
G|---------7-------7---------------7-------7---------------7-------7---------------7-------7-------|
D|-----7-------7-------7-------7-------7-------7-------7-------7-------7-------7-------7-------7---|
A|-5-----------------------5-----------------------5-----------------------5-----------------------|
E|-------------------------------------------------------------------------------------------------|

E|-------------------------------------------------------------------------------------------------|
B|-------------------------------------------------------------------------------------------------|
G|---------4-------4---------------4-------4---------------4-------4---------------4-------4-------|
D|-----4-------4-------4-------4-------4-------4-------4-------4-------4-------4-------4-------4---|
A|-2-----------------------2-----------------------2-----------------------2-----------------------|
E|-------------------------------------------------------------------------------------------------|

E|-------------------------------------------------------------------------|-------------------------------------------------------------------------------------------------|
B|-------------------------------------------------------------------------|-------------------------------------------------------------------------------------------------|
G|---------5-------5---------------6-------6---------------3-------3-------|---------5-------5---------------5-------5---------------5-------5---------------5-------5-------|
D|-----5-------5-------5-------6-------6-------6-------3-------3-------3---|-----5-------5-------5-------5-------5-------5-------5-------5-------5-------5-------5-------5---|
A|-3-----------------------4-----------------------1-----------------------|-3-----------------------3-----------------------3-----------------------3-----------------------|
E|-------------------------------------------------------------------------|-------------------------------------------------------------------------------------------------|

E|-------------------------------------------------------------------------|-------------------------------------------------------------------------------------------------|
B|-------------------------------------------------------------------------|-------------------------------------------------------------------------------------------------|
G|---------5-------5---------------6-------6---------------3-------3-------|---------5-------5---------------5-------5---------------5-------5---------------5-------5-------|
D|-----5-------5-------5-------6-------6-------6-------3-------3-------3---|-----5-------5-------5-------5-------5-------5-------5-------5-------5-------5-------5-------5---|
A|-3-----------------------4-----------------------1-----------------------|-3-----------------------3-----------------------3-----------------------3-----------------------|
E|-------------------------------------------------------------------------|-------------------------------------------------------------------------------------------------|

E|-------------------------------------------------------------------------------------------------|
B|-------------------------------------------------------------------------------------------------|
G|-------------------------------------------------------------------------------------------------|
D|---------2-------2---------------2-------2---------------2-------2---------------2-------2-------|
A|-----2-------2-------2-------2-------2-------2-------2-------2-------2-------2-------2-------2---|
E|-0-----------------------0-----------------------0-----------------------0-----------------------|

E|-------------------------------------------------------------------------------------------------|
B|-------------------------------------------------------------------------------------------------|
G|---------6-------6---------------6-------6---------------6-------6---------------6-------6-------|
D|-----6-------6-------6-------6-------6-------6-------6-------6-------6-------6-------6-------6---|
A|-4-----------------------4-----------------------4-----------------------4-----------------------|
E|-------------------------------------------------------------------------------------------------|

E|-------------------------------------------------------------------------------------------------|
B|-------------------------------------------------------------------------------------------------|
G|---------7-------7---------------7-------7---------------7-------7---------------7-------7-------|
D|-----7-------7-------7-------7-------7-------7-------7-------7-------7-------7-------7-------7---|
A|-5-----------------------5-----------------------5-----------------------5-----------------------|
E|-------------------------------------------------------------------------------------------------|

E|-------------------------------------------------------------------------------------------------|
B|-------------------------------------------------------------------------------------------------|
G|---------4-------4---------------4-------4---------------4-------4---------------4-------4-------|
D|-----4-------4-------4-------4-------4-------4-------4-------4-------4-------4-------4-------4---|
A|-2-----------------------2-----------------------2-----------------------2-----------------------|
E|-------------------------------------------------------------------------------------------------|

E|-------------------------------------------------------------------------------------------------|
B|-------------------------------------------------------------------------------------------------|
G|-------------------------------------------------------------------------------------------------|
D|---------2-------2---------------2-------2---------------2-------2---------------2-------2-------|
A|-----2-------2-------2-------2-------2-------2-------2-------2-------2-------2-------2-------2---|
E|-0-----------------------0-----------------------0-----------------------0-----------------------|

E|-------------------------------------------------------------------------------------------------|
B|-------------------------------------------------------------------------------------------------|
G|---------6-------6---------------6-------6---------------6-------6---------------6-------6-------|
D|-----6-------6-------6-------6-------6-------6-------6-------6-------6-------6-------6-------6---|
A|-4-----------------------4-----------------------4-----------------------4-----------------------|
E|-------------------------------------------------------------------------------------------------|

E|-------------------------------------------------------------------------------------------------|
B|-------------------------------------------------------------------------------------------------|
G|---------7-------7---------------7-------7---------------7-------7---------------7-------7-------|
D|-----7-------7-------7-------7-------7-------7-------7-------7-------7-------7-------7-------7---|
A|-5-----------------------5-----------------------5-----------------------5-----------------------|
E|-------------------------------------------------------------------------------------------------|

E|-------------------------------------------------------------------------------------------------|
B|-------------------------------------------------------------------------------------------------|
G|---------4-------4---------------4-------4---------------4-------4---------------4-------4-------|
D|-----4-------4-------4-------4-------4-------4-------4-------4-------4-------4-------4-------4---|
A|-2-----------------------2-----------------------2-----------------------2-----------------------|
E|-------------------------------------------------------------------------------------------------|

E|-------------------------------------------------------------------------------------------------|
B|-------------------------------------------------------------------------------------------------|
G|---------5-------5---------------5-------5---------------6-------6---------------3-------3-------|
D|-----5-------5-------5-------5-------5-------5-------6-------6-------6-------3-------3-------3---|
A|-3-----------------------3-----------------------4-----------------------1-----------------------|
E|-------------------------------------------------------------------------------------------------|

E|-------------------------------------------------------------------------------------------------|
B|-------------------------------------------------------------------------------------------------|
G|---------5-------5---------------5-------5---------------5-------5---------------5-------5-------|
D|-----5-------5-------5-------5-------5-------5-------5-------5-------5-------5-------5-------5---|
A|-3-----------------------3-----------------------3-----------------------3-----------------------|
E|-------------------------------------------------------------------------------------------------|

E|-------------------------------------------------------------------------------------------------|
B|-------------------------------------------------------------------------------------------------|
G|---------5-------5---------------5-------5---------------6-------6---------------3-------3-------|
D|-----5-------5-------5-------5-------5-------5-------6-------6-------6-------3-------3-------3---|
A|-3-----------------------3-----------------------4-----------------------1-----------------------|
E|-------------------------------------------------------------------------------------------------|

E|-------------------------------------------------------------------------------------------------|
B|-------------------------------------------------------------------------------------------------|
G|---------5-------5---------------5-------5---------------5-------5---------------5-------5-------|
D|-----5-------5-------5-------5-------5-------5-------5-------5-------5-------5-------5-------5---|
A|-3-----------------------3-----------------------3-----------------------3-----------------------|
E|-------------------------------------------------------------------------------------------------|

E|-------------------------------------------------------------------------------------------------|
B|-------------------------------------------------------------------------------------------------|
G|---------5-------5---------------5-------5---------------6-------6---------------3-------3-------|
D|-----5-------5-------5-------5-------5-------5-------6-------6-------6-------3-------3-------3---|
A|-3-----------------------3-----------------------4-----------------------1-----------------------|
E|-------------------------------------------------------------------------------------------------|

E|-------------------------------------------------------------------------------------------------|
B|-------------------------------------------------------------------------------------------------|
G|---------5-------5---------------5-------5---------------5-------5---------------5-------5-------|
D|-----5-------5-------5-------5-------5-------5-------5-------5-------5-------5-------5-------5---|
A|-3-----------------------3-----------------------3-----------------------3-----------------------|
E|-------------------------------------------------------------------------------------------------|

E|-------------------------------------------------------------------------------------------------|
B|-------------------------------------------------------------------------------------------------|
G|---------5-------5---------------5-------5---------------6-------6---------------3-------3-------|
D|-----5-------5-------5-------5-------5-------5-------6-------6-------6-------3-------3-------3---|
A|-3-----------------------3-----------------------4-----------------------1-----------------------|
E|-------------------------------------------------------------------------------------------------|

E|-------------------------------------------------------------------------------------------------|
B|-------------------------------------------------------------------------------------------------|
G|---------5-------5---------------5-------5---------------5-------5---------------5-------5-------|
D|-----5-------5-------5-------5-------5-------5-------5-------5-------5-------5-------5-------5---|
A|-3-----------------------3-----------------------3-----------------------3-----------------------|
E|-------------------------------------------------------------------------------------------------|

E|---------|---------|---------|---------|---------|---------|---------|---------|---------|
B|---------|---------|---------|---------|---------|---------|---------|---------|---------|
G|-%-------|-%-------|-%-------|-%-------|-%-------|-%-------|-%-------|-%-------|-%-------|
D|-%-------|-%-------|-%-------|-%-------|-%-------|-%-------|-%-------|-%-------|-%-------|
A|---------|---------|---------|---------|---------|---------|---------|---------|---------|
E|---------|---------|---------|---------|---------|---------|---------|---------|---------|

E|---------|---------|---------|---------|---------|---------|---------|---------|---------|
B|---------|---------|---------|---------|---------|---------|---------|---------|---------|
G|-%-------|-%-------|-%-------|-%-------|-%-------|-%-------|-%-------|-%-------|-%-------|
D|-%-------|-%-------|-%-------|-%-------|-%-------|-%-------|-%-------|-%-------|-%-------|
A|---------|---------|---------|---------|---------|---------|---------|---------|---------|
E|---------|---------|---------|---------|---------|---------|---------|---------|---------|

E|---------|---------|---------|---------|---------|---------|---------|---------|---------|
B|---------|---------|---------|---------|---------|---------|---------|---------|---------|
G|-%-------|-%-------|-%-------|-%-------|-%-------|-%-------|-%-------|-%-------|-%-------|
D|-%-------|-%-------|-%-------|-%-------|-%-------|-%-------|-%-------|-%-------|-%-------|
A|---------|---------|---------|---------|---------|---------|---------|---------|---------|
E|---------|---------|---------|---------|---------|---------|---------|---------|---------|

E|---------|---------|---------|---------|---------|---------|---------|---------|---------|
B|---------|---------|---------|---------|---------|---------|---------|---------|---------|
G|-%-------|-%-------|-%-------|-%-------|-%-------|-%-------|-%-------|-%-------|-%-------|
D|-%-------|-%-------|-%-------|-%-------|-%-------|-%-------|-%-------|-%-------|-%-------|
A|---------|---------|---------|---------|---------|---------|---------|---------|---------|
E|---------|---------|---------|---------|---------|---------|---------|---------|---------|

E|---------|---------|---------|---------|---------|---------|---------|---------|---------|
B|---------|---------|---------|---------|---------|---------|---------|---------|---------|
G|-%-------|-%-------|-%-------|-%-------|-%-------|-%-------|-%-------|-%-------|-%-------|
D|-%-------|-%-------|-%-------|-%-------|-%-------|-%-------|-%-------|-%-------|-%-------|
A|---------|---------|---------|---------|---------|---------|---------|---------|---------|
E|---------|---------|---------|---------|---------|---------|---------|---------|---------|

E|---------|---------|---------|---------|---------|---------|---------|---------|---------|
B|---------|---------|---------|---------|---------|---------|---------|---------|---------|
G|-%-------|-%-------|-%-------|-%-------|-%-------|-%-------|-%-------|-%-------|-%-------|
D|-%-------|-%-------|-%-------|-%-------|-%-------|-%-------|-%-------|-%-------|-%-------|
A|---------|---------|---------|---------|---------|---------|---------|---------|---------|
E|---------|---------|---------|---------|---------|---------|---------|---------|---------|

E|---------|---------|---------|---------|---------|---------|---------|---------|---------|
B|---------|---------|---------|---------|---------|---------|---------|---------|---------|
G|-%-------|-%-------|-%-------|-%-------|-%-------|-%-------|-%-------|-%-------|-%-------|
D|-%-------|-%-------|-%-------|-%-------|-%-------|-%-------|-%-------|-%-------|-%-------|
A|---------|---------|---------|---------|---------|---------|---------|---------|---------|
E|---------|---------|---------|---------|---------|---------|---------|---------|---------|

E|---------|---------|---------|---------|---------|---------|---------|---------|---------|
B|---------|---------|---------|---------|---------|---------|---------|---------|---------|
G|-%-------|-%-------|-%-------|-%-------|-%-------|-%-------|-%-------|-%-------|-%-------|
D|-%-------|-%-------|-%-------|-%-------|-%-------|-%-------|-%-------|-%-------|-%-------|
A|---------|---------|---------|---------|---------|---------|---------|---------|---------|
E|---------|---------|---------|---------|---------|---------|---------|---------|---------|

E|---------|---------|---------|---------|---------|---------|---------|---------|---------|
B|---------|---------|---------|---------|---------|---------|---------|---------|---------|
G|-%-------|-%-------|-%-------|-%-------|-%-------|-%-------|-%-------|-%-------|-%-------|
D|-%-------|-%-------|-%-------|-%-------|-%-------|-%-------|-%-------|-%-------|-%-------|
A|---------|---------|---------|---------|---------|---------|---------|---------|---------|
E|---------|---------|---------|---------|---------|---------|---------|---------|---------|

E|---------|---------|---------|---------|---------|---------|---------|---------|---------|
B|---------|---------|---------|---------|---------|---------|---------|---------|---------|
G|-%-------|-%-------|-%-------|-%-------|-%-------|-%-------|-%-------|-%-------|-%-------|
D|-%-------|-%-------|-%-------|-%-------|-%-------|-%-------|-%-------|-%-------|-%-------|
A|---------|---------|---------|---------|---------|---------|---------|---------|---------|
E|---------|---------|---------|---------|---------|---------|---------|---------|---------|

E|---------|---------|---------|---------|---------|---------|---------|---------|---------|
B|---------|---------|---------|---------|---------|---------|---------|---------|---------|
G|-%-------|-%-------|-%-------|-%-------|-%-------|-%-------|-%-------|-%-------|-%-------|
D|-%-------|-%-------|-%-------|-%-------|-%-------|-%-------|-%-------|-%-------|-%-------|
A|---------|---------|---------|---------|---------|---------|---------|---------|---------|
E|---------|---------|---------|---------|---------|---------|---------|---------|---------|

E|---------|---------|---------|---------|---------|---------|---------|---------|---------|
B|---------|---------|---------|---------|---------|---------|---------|---------|---------|
G|-%-------|-%-------|-%-------|-%-------|-%-------|-%-------|-%-------|-%-------|-%-------|
D|-%-------|-%-------|-%-------|-%-------|-%-------|-%-------|-%-------|-%-------|-%-------|
A|---------|---------|---------|---------|---------|---------|---------|---------|---------|
E|---------|---------|---------|---------|---------|---------|---------|---------|---------|

E|---------|---------|---------|---------|---------|---------|---------|---------|---------|
B|---------|---------|---------|---------|---------|---------|---------|---------|---------|
G|-%-------|-%-------|-%-------|-%-------|-%-------|-%-------|-%-------|-%-------|-%-------|
D|-%-------|-%-------|-%-------|-%-------|-%-------|-%-------|-%-------|-%-------|-%-------|
A|---------|---------|---------|---------|---------|---------|---------|---------|---------|
E|---------|---------|---------|---------|---------|---------|---------|---------|---------|

E|---------|---------|---------|---------|---------|---------|---------|---------|---------|
B|---------|---------|---------|---------|---------|---------|---------|---------|---------|
G|-%-------|-%-------|-%-------|-%-------|-%-------|-%-------|-%-------|-%-------|-%-------|
D|-%-------|-%-------|-%-------|-%-------|-%-------|-%-------|-%-------|-%-------|-%-------|
A|---------|---------|---------|---------|---------|---------|---------|---------|---------|
E|---------|---------|---------|---------|---------|---------|---------|---------|---------|

E|---------|---------|---------|---------|---------|---------|---------|---------|---------|
B|---------|---------|---------|---------|---------|---------|---------|---------|---------|
G|-%-------|-%-------|-%-------|-%-------|-%-------|-%-------|-%-------|-%-------|-%-------|
D|-%-------|-%-------|-%-------|-%-------|-%-------|-%-------|-%-------|-%-------|-%-------|
A|---------|---------|---------|---------|---------|---------|---------|---------|---------|
E|---------|---------|---------|---------|---------|---------|---------|---------|---------|

E|---------|---------|---------|---------|---------|---------|---------|---------|---------|
B|---------|---------|---------|---------|---------|---------|---------|---------|---------|
G|-%-------|-%-------|-%-------|-%-------|-%-------|-%-------|-%-------|-%-------|-%-------|
D|-%-------|-%-------|-%-------|-%-------|-%-------|-%-------|-%-------|-%-------|-%-------|
A|---------|---------|---------|---------|---------|---------|---------|---------|---------|
E|---------|---------|---------|---------|---------|---------|---------|---------|---------|

E|---------|---------|---------|---------|---------|---------|---------|---------|---------|
B|---------|---------|---------|---------|---------|---------|---------|---------|---------|
G|-%-------|-%-------|-%-------|-%-------|-%-------|-%-------|-%-------|-%-------|-%-------|
D|-%-------|-%-------|-%-------|-%-------|-%-------|-%-------|-%-------|-%-------|-%-------|
A|---------|---------|---------|---------|---------|---------|---------|---------|---------|
E|---------|---------|---------|---------|---------|---------|---------|---------|---------|
Iron Maiden - Afraid To Shoot Strangers
Iron Maiden - Afraid To Shoot Strangers.gp3