Iron Maiden - Afraid To Shoot Strangers (4)

Iron Maiden - Afraid To Shoot Strangers (4)

Iron Maiden



Title: Afraid To Shoot Strangers
Album: 
Artist: Iron Maiden
Author: Words&Music by Steve Harris

Track 1: Guitar 1 (Janick)
E|-------------------------------------------------------------------------------------------------|
B|-------------------------------------------------------------------------------------------------|
G|-------------------------------------------------------------------------------------------------|
D|---------2-------2---------------2-------2---------------2-------2---------------2-------2-------|
A|-----2-------2-------2-------2-------2-------2-------2-------2-------2-------2-------2-------2---|
E|-0-----------------------0-----------------------0-----------------------0-----------------------|

E|-------------------------------------------------------------------------------------------------|
B|-------------------------------------------------------------------------------------------------|
G|-------------------------------------------------------------------------------------------------|
D|---------5-------5---------------5-------5---------------5-------5---------------5-------5-------|
A|-----5-------5-------5-------5-------5-------5-------5-------5-------5-------5-------5-------5---|
E|-3-----------------------3-----------------------3-----------------------3-----------------------|

E|-------------------------------------------------------------------------------------------------|
B|-------------------------------------------------------------------------------------------------|
G|---------6-------6---------------6-------6---------------6-------6---------------6-------6-------|
D|-----6-------6-------6-------6-------6-------6-------6-------6-------6-------6-------6-------6---|
A|-4-----------------------4-----------------------4-----------------------4-----------------------|
E|-------------------------------------------------------------------------------------------------|

E|-------------------------------------------------------------------------------------------------|
B|-------------------------------------------------------------------------------------------------|
G|---------4-------4---------------4-------4---------------4-------4---------------4-------4-------|
D|-----4-------4-------4-------4-------4-------4-------4-------4-------4-------4-------4-------4---|
A|-2-----------------------2-----------------------2-----------------------2-----------------------|
E|-------------------------------------------------------------------------------------------------|

E|-------------------------------------------------------------------------------------------------|
B|-------------------------------------------------------------------------------------------------|
G|-------------------------------------------------------------------------------------------------|
D|---------2-------2---------------2-------2---------------2-------2---------------2-------2-------|
A|-----2-------2-------2-------2-------2-------2-------2-------2-------2-------2-------2-------2---|
E|-0-----------------------0-----------------------0-----------------------0-----------------------|

E|-------------------------------------------------------------------------------------------------|
B|-------------------------------------------------------------------------------------------------|
G|-------------------------------------------------------------------------------------------------|
D|---------5-------5---------------5-------5---------------5-------5---------------5-------5-------|
A|-----5-------5-------5-------5-------5-------5-------5-------5-------5-------5-------5-------5---|
E|-3-----------------------3-----------------------3-----------------------3-----------------------|

E|-------------------------------------------------------------------------------------------------|
B|-------------------------------------------------------------------------------------------------|
G|---------6-------6---------------6-------6---------------6-------6---------------6-------6-------|
D|-----6-------6-------6-------6-------6-------6-------6-------6-------6-------6-------6-------6---|
A|-4-----------------------4-----------------------4-----------------------4-----------------------|
E|-------------------------------------------------------------------------------------------------|

E|-------------------------------------------------------------------------------------------------|
B|-------------------------------------------------------------------------------------------------|
G|---------4-------4---------------4-------4-------------------------------------------------------|
D|-----4-------4-------4-------4-------4-------4-----------6-------6---------------6-------6-------|
A|-2-----------------------2---------------------------6-------6-------6-------6-------6-------6---|
E|-------------------------------------------------4-----------------------4-----------------------|

E|-------------------------------------------------------------------------------------------------|
B|-------------------------------------------------------------------------------------------------|
G|-------------------------------------------------------------------------------------------------|
D|---------2-------2---------------2-------2---------------2-------2---------------2-------2-------|
A|-----2-------2-------2-------2-------2-------2-------2-------2-------2-------2-------2-------2---|
E|-0-----------------------0-----------------------0-----------------------0-----------------------|

E|-------------------------------------------------------------------------------------------------|
B|-------------------------------------------------------------------------------------------------|
G|---------6-------6---------------6-------6---------------6-------6---------------6-------6-------|
D|-----6-------6-------6-------6-------6-------6-------6-------6-------6-------6-------6-------6---|
A|-4-----------------------4-----------------------4-----------------------4-----------------------|
E|-------------------------------------------------------------------------------------------------|

E|-------------------------------------------------------------------------------------------------|
B|-------------------------------------------------------------------------------------------------|
G|---------7-------7---------------7-------7---------------7-------7---------------7-------7-------|
D|-----7-------7-------7-------7-------7-------7-------7-------7-------7-------7-------7-------7---|
A|-5-----------------------5-----------------------5-----------------------5-----------------------|
E|-------------------------------------------------------------------------------------------------|

E|-------------------------------------------------------------------------------------------------|
B|-------------------------------------------------------------------------------------------------|
G|---------4-------4---------------4-------4-------------------------------------------------------|
D|-----4-------4-------4-------4-------4-------4-----------6-------6---------------6-------6-------|
A|-2-----------------------2---------------------------6-------6-------6-------6-------6-------6---|
E|-------------------------------------------------4-----------------------4-----------------------|

E|-------------------------------------------------------------------------------------------------|
B|-------------------------------------------------------------------------------------------------|
G|-------------------------------------------------------------------------------------------------|
D|---------2-------2---------------2-------2---------------2-------2---------------2-------2-------|
A|-----2-------2-------2-------2-------2-------2-------2-------2-------2-------2-------2-------2---|
E|-0-----------------------0-----------------------0-----------------------0-----------------------|

E|-------------------------------------------------------------------------------------------------|
B|-------------------------------------------------------------------------------------------------|
G|---------6-------6---------------6-------6---------------6-------6---------------6-------6-------|
D|-----6-------6-------6-------6-------6-------6-------6-------6-------6-------6-------6-------6---|
A|-4-----------------------4-----------------------4-----------------------4-----------------------|
E|-------------------------------------------------------------------------------------------------|

E|-------------------------------------------------------------------------------------------------|
B|-------------------------------------------------------------------------------------------------|
G|---------7-------7---------------7-------7---------------7-------7---------------7-------7-------|
D|-----7-------7-------7-------7-------7-------7-------7-------7-------7-------7-------7-------7---|
A|-5-----------------------5-----------------------5-----------------------5-----------------------|
E|-------------------------------------------------------------------------------------------------|

E|-------------------------------------------------------------------------------------------------|
B|-------------------------------------------------------------------------------------------------|
G|---------4-------4---------------4-------4---------------4-------4---------------4-------4-------|
D|-----4-------4-------4-------4-------4-------4-------4-------4-------4-------4-------4-------4---|
A|-2-----------------------2-----------------------2-----------------------2-----------------------|
E|-------------------------------------------------------------------------------------------------|

E|-------------------------------------------------------------------------------------------------|
B|-------------------------------------------------------------------------------------------------|
G|---------5-------5---------------6-------6---------------3-------3---------------5-------5-------|
D|-----5-------5-------5-------6-------6-------6-------3-------3-------3-------5-------5-------5---|
A|-3-----------------------4-----------------------1-----------------------3-----------------------|
E|-------------------------------------------------------------------------------------------------|

E|-------------------------------------------------------------------------------------------------|
B|-------------------------------------------------------------------------------------------------|
G|---------5-------5---------------5-------5---------------5-------5---------------5-------5-------|
D|-----5-------5-------5-------5-------5-------5-------5-------5-------5-------5-------5-------5---|
A|-3-----------------------3-----------------------3-----------------------3-----------------------|
E|-------------------------------------------------------------------------------------------------|

E|-------------------------------------------------------------------------------------------------|
B|-------------------------------------------------------------------------------------------------|
G|---------6-------6---------------3-------3---------------5-------5---------------5-------5-------|
D|-----6-------6-------6-------3-------3-------3-------5-------5-------5-------5-------5-------5---|
A|-4-----------------------1-----------------------3-----------------------3-----------------------|
E|-------------------------------------------------------------------------------------------------|

E|-------------------------------------------------|-------------------------------------------------------------------------------------------------|
B|-------------------------------------------------|-------------------------------------------------------------------------------------------------|
G|---------5-------5---------------5-------5-------|-------------------------------------------------------------------------------------------------|
D|-----5-------5-------5-------5-------5-------5---|---------2-------2---------------2-------2---------------2-------2---------------2-------2-------|
A|-3-----------------------3-----------------------|-----2-------2-------2-------2-------2-------2-------2-------2-------2-------2-------2-------2---|
E|-------------------------------------------------|-0-----------------------0-----------------------0-----------------------0-----------------------|

E|-------------------------------------------------------------------------------------------------|
B|-------------------------------------------------------------------------------------------------|
G|---------6-------6---------------6-------6---------------6-------6---------------6-------6-------|
D|-----6-------6-------6-------6-------6-------6-------6-------6-------6-------6-------6-------6---|
A|-4-----------------------4-----------------------4-----------------------4-----------------------|
E|-------------------------------------------------------------------------------------------------|

E|-------------------------------------------------------------------------------------------------|
B|-------------------------------------------------------------------------------------------------|
G|---------7-------7---------------7-------7---------------7-------7---------------7-------7-------|
D|-----7-------7-------7-------7-------7-------7-------7-------7-------7-------7-------7-------7---|
A|-5-----------------------5-----------------------5-----------------------5-----------------------|
E|-------------------------------------------------------------------------------------------------|

E|-------------------------------------------------------------------------------------------------|
B|-------------------------------------------------------------------------------------------------|
G|---------4-------4---------------4-------4---------------4-------4---------------4-------4-------|
D|-----4-------4-------4-------4-------4-------4-------4-------4-------4-------4-------4-------4---|
A|-2-----------------------2-----------------------2-----------------------2-----------------------|
E|-------------------------------------------------------------------------------------------------|

E|-------------------------------------------------------------------------------------------------|
B|-------------------------------------------------------------------------------------------------|
G|-------------------------------------------------------------------------------------------------|
D|---------2-------2---------------2-------2---------------2-------2---------------2-------2-------|
A|-----2-------2-------2-------2-------2-------2-------2-------2-------2-------2-------2-------2---|
E|-0-----------------------0-----------------------0-----------------------0-----------------------|

E|-------------------------------------------------------------------------------------------------|
B|-------------------------------------------------------------------------------------------------|
G|---------6-------6---------------6-------6---------------6-------6---------------6-------6-------|
D|-----6-------6-------6-------6-------6-------6-------6-------6-------6-------6-------6-------6---|
A|-4-----------------------4-----------------------4-----------------------4-----------------------|
E|-------------------------------------------------------------------------------------------------|

E|-------------------------------------------------------------------------------------------------|
B|-------------------------------------------------------------------------------------------------|
G|---------7-------7---------------7-------7---------------7-------7---------------7-------7-------|
D|-----7-------7-------7-------7-------7-------7-------7-------7-------7-------7-------7-------7---|
A|-5-----------------------5-----------------------5-----------------------5-----------------------|
E|-------------------------------------------------------------------------------------------------|

E|-------------------------------------------------------------------------------------------------|
B|-------------------------------------------------------------------------------------------------|
G|---------4-------4---------------4-------4---------------4-------4---------------4-------4-------|
D|-----4-------4-------4-------4-------4-------4-------4-------4-------4-------4-------4-------4---|
A|-2-----------------------2-----------------------2-----------------------2-----------------------|
E|-------------------------------------------------------------------------------------------------|

E|-------------------------------------------------------------------------------------------------|
B|-------------------------------------------------------------------------------------------------|
G|---------5-------5---------------5-------5---------------6-------6---------------3-------3-------|
D|-----5-------5-------5-------5-------5-------5-------6-------6-------6-------3-------3-------3---|
A|-3-----------------------3-----------------------4-----------------------1-----------------------|
E|-------------------------------------------------------------------------------------------------|

E|-------------------------------------------------------------------------------------------------|
B|-------------------------------------------------------------------------------------------------|
G|---------5-------5---------------5-------5---------------5-------5---------------5-------5-------|
D|-----5-------5-------5-------5-------5-------5-------5-------5-------5-------5-------5-------5---|
A|-3-----------------------3-----------------------3-----------------------3-----------------------|
E|-------------------------------------------------------------------------------------------------|

E|-------------------------------------------------------------------------------------------------|
B|-------------------------------------------------------------------------------------------------|
G|---------5-------5---------------5-------5---------------6-------6---------------3-------3-------|
D|-----5-------5-------5-------5-------5-------5-------6-------6-------6-------3-------3-------3---|
A|-3-----------------------3-----------------------4-----------------------1-----------------------|
E|-------------------------------------------------------------------------------------------------|

E|-------------------------------------------------------------------------------------------------|
B|-------------------------------------------------------------------------------------------------|
G|---------5-------5---------------5-------5---------------5-------5---------------5-------5-------|
D|-----5-------5-------5-------5-------5-------5-------5-------5-------5-------5-------5-------5---|
A|-3-----------------------3-----------------------3-----------------------3-----------------------|
E|-------------------------------------------------------------------------------------------------|

E|-------------------------------------------------------------------------------------------------|
B|-------------------------------------------------------------------------------------------------|
G|---------5-------5---------------5-------5---------------6-------6---------------3-------3-------|
D|-----5-------5-------5-------5-------5-------5-------6-------6-------6-------3-------3-------3---|
A|-3-----------------------3-----------------------4-----------------------1-----------------------|
E|-------------------------------------------------------------------------------------------------|

E|-------------------------------------------------------------------------------------------------|
B|-------------------------------------------------------------------------------------------------|
G|---------5-------5---------------5-------5---------------5-------5---------------5-------5-------|
D|-----5-------5-------5-------5-------5-------5-------5-------5-------5-------5-------5-------5---|
A|-3-----------------------3-----------------------3-----------------------3-----------------------|
E|-------------------------------------------------------------------------------------------------|

E|-------------------------------------------------------------------------------------------------|
B|-------------------------------------------------------------------------------------------------|
G|---------5-------5---------------5-------5---------------6-------6---------------3-------3-------|
D|-----5-------5-------5-------5-------5-------5-------6-------6-------6-------3-------3-------3---|
A|-3-----------------------3-----------------------4-----------------------1-----------------------|
E|-------------------------------------------------------------------------------------------------|

E|-------------------------------------------------------------------------------------------------|
B|-------------------------------------------------------------------------------------------------|
G|---------5-------5---------------5-------5---------------5-------5---------------5-------5-------|
D|-----5-------5-------5-------5-------5-------5-------5-------5-------5-------5-------5-------5---|
A|-3-----------------------3-----------------------3-----------------------3-----------------------|
E|-------------------------------------------------------------------------------------------------|

E|-------------------------------------------------9---------------|-----------------------------------------------------------------|
B|-------------9---10--9-------10--10------10--12------12--10--12--|-12------9---10--12------9---10--12--10--9---------------9-------|
G|-%-------11--------------11----------11--------------------------|-----9---------------9-----------------------11--9---11------11--|
D|-%---11----------------------------------------------------------|-----------------------------------------------------------------|
A|-----------------------------------------------------------------|-----------------------------------------------------------------|
E|-----------------------------------------------------------------|-----------------------------------------------------------------|

E|-------------------------------------------------9---------------|-----------------------------------------------------------------|
B|-------------9---10--9-------10--10------10--12------12--10--12--|-12------9---10--12------9---10--12--10--9---------------9-------|
G|-11------11--------------11----------11--------------------------|-----9---------------9-----------------------11--9---11------11--|
D|-----11----------------------------------------------------------|-----------------------------------------------------------------|
A|-----------------------------------------------------------------|-----------------------------------------------------------------|
E|-----------------------------------------------------------------|-----------------------------------------------------------------|

E|-------------------------------------------------9---------------|-----------------------------------------------------------------|
B|-------------9---10--9-------10--10------10--12------12--10--12--|-12------9---10--12------9---10--12--10--9---------------9-------|
G|-11------11--------------11----------11--------------------------|-----9---------------9-----------------------11--9---11------11--|
D|-----11----------------------------------------------------------|-----------------------------------------------------------------|
A|-----------------------------------------------------------------|-----------------------------------------------------------------|
E|-----------------------------------------------------------------|-----------------------------------------------------------------|

E|-------------------------------------------------9---------------|-----------------------------------------------------------------|
B|-------------9---10--9-------10--10------10--12------12--10--12--|-12------9---10--12------9---10--12--10--9---------------9-------|
G|-%-------11--------------11----------11--------------------------|-----9---------------9-----------------------11--9---11------11--|
D|-%---11----------------------------------------------------------|-----------------------------------------------------------------|
A|-----------------------------------------------------------------|-----------------------------------------------------------------|
E|-----------------------------------------------------------------|-----------------------------------------------------------------|

E|-----------------------------------------------|------------------------------------------------------------|
B|------10---10---10--12--10---9----10-------9---|-----9---9---9---9------------------------------9-----------|
G|-11------------------------------------11------|-%---------------------9---11--11--11---9---11------11--9---|
D|-----------------------------------------------|-%----------------------------------------------------------|
A|-----------------------------------------------|------------------------------------------------------------|
E|-----------------------------------------------|------------------------------------------------------------|

E|-----------------------------------------------------|------------------------------------------------------------|
B|-----10--10--10--10--10--12---10---9----10-------9---|-----9---9---9---9------------------------------9-----------|
G|-11------------------------------------------11------|-%---------------------9---11--11--11---9---11------11--9---|
D|-----------------------------------------------------|-%----------------------------------------------------------|
A|-----------------------------------------------------|------------------------------------------------------------|
E|-----------------------------------------------------|------------------------------------------------------------|

E|-----------------------------------------------------|------------------------------------------------------------|
B|-----10--10--10--10--10--12---10---9----10-------9---|-----9---9---9---9------------------------------9-----------|
G|-11------------------------------------------11------|-%---------------------9---11--11--11---9---11------11--9---|
D|-----------------------------------------------------|-%----------------------------------------------------------|
A|-----------------------------------------------------|------------------------------------------------------------|
E|-----------------------------------------------------|------------------------------------------------------------|

E|-----------------------------------------------------|------------------------------------------------------------|
B|-----10--10--10--10--10--12---10---9----10-------9---|-----9---9---9---9------------------------------9-----------|
G|-11------------------------------------------11------|-%---------------------9---11--11--11---9---11------11--9---|
D|-----------------------------------------------------|-%----------------------------------------------------------|
A|-----------------------------------------------------|------------------------------------------------------------|
E|-----------------------------------------------------|------------------------------------------------------------|

E|-------------------------------------------------9---------------|-----------------------------------------------------------------|
B|-------------9---10--9-------10--10------10--12------12--10--12--|-12------9---10--12------9---10--12--10--9---------------9-------|
G|-11------11--------------11----------11--------------------------|-----9---------------9-----------------------11--9---11------11--|
D|-----11----------------------------------------------------------|-----------------------------------------------------------------|
A|-----------------------------------------------------------------|-----------------------------------------------------------------|
E|-----------------------------------------------------------------|-----------------------------------------------------------------|

E|-------------------------------------------------9---------------|-----------------------------------------------------------------|
B|-------------9---10--9-------10--10------10--12------12--10--12--|-12------9---10--12------9---10--12--10--9---------------9-------|
G|-11------11--------------11----------11--------------------------|-----9---------------9-----------------------11--9---11------%---|
D|-----11----------------------------------------------------------|-------------------------------------------------------------%---|
A|-----------------------------------------------------------------|-----------------------------------------------------------------|
E|-----------------------------------------------------------------|-----------------------------------------------------------------|

E|-------------------------------------|-----------------------------|-------------------------------------|
B|-------------------------------------|-----------------------------|-------------------------------------|
G|-------------------------------------|-----------------------------|-------------------------------------|
D|-7----9----9----9----9----9----9-----|-9----9-----9----9-----9-----|-7----9----9----9----9----9----9-----|
A|-5----7----7----7----7----7----7-----|-7----7-----7----7-----7-----|-5----7----7----7----7----7----7-----|
E|-------------------------------------|-----------------------------|-------------------------------------|

E|-------------------------|-------------------------------------|-----------------------------|
B|-------------------------|-------------------------------------|-----------------------------|
G|-------------------------|-------------------------------------|-----------------------------|
D|-7-----7-----5-----5-----|-7----9----9----9----9----9----9-----|-9----9-----9----9-----9-----|
A|-5-----5-----3-----3-----|-5----7----7----7----7----7----7-----|-7----7-----7----7-----7-----|
E|-------------------------|-------------------------------------|-----------------------------|

E|-------------------------------------|-------------------------|-------------------------------------|
B|-------------------------------------|-------------------------|-------------------------------------|
G|-------------------------------------|-------------------------|-------------------------------------|
D|-7----9----9----9----9----9----9-----|-7-----7-----5-----5-----|-7----9----9----9----9----9----9-----|
A|-5----7----7----7----7----7----7-----|-5-----5-----3-----3-----|-5----7----7----7----7----7----7-----|
E|-------------------------------------|-------------------------|-------------------------------------|

E|-----------------------------|-------------------------------------|-------------------------|
B|-----------------------------|-------------------------------------|-------------------------|
G|-----------------------------|-------------------------------------|-------------------------|
D|-9----9-----9----9-----9-----|-7----9----9----9----9----9----9-----|-7-----7-----5-----5-----|
A|-7----7-----7----7-----7-----|-5----7----7----7----7----7----7-----|-5-----5-----3-----3-----|
E|-----------------------------|-------------------------------------|-------------------------|

E|-------------------------------------|-----------------------------|-------------------------------------|
B|-------------------------------------|-----------------------------|-------------------------------------|
G|-------------------------------------|-----------------------------|-------------------------------------|
D|-7----9----9----9----9----9----9-----|-9----9-----9----9-----9-----|-7----9----9----9----9----9----9-----|
A|-5----7----7----7----7----7----7-----|-7----7-----7----7-----7-----|-5----7----7----7----7----7----7-----|
E|-------------------------------------|-----------------------------|-------------------------------------|

E|-------------------------|-15---12------------------12---15---12------------------12---|
B|-------------------------|-----------15---12---15------------------15---12---15--------|
G|-------------------------|-------------------------------------------------------------|
D|-7-----7-----5-----5-----|-------------------------------------------------------------|
A|-5-----5-----3-----3-----|-------------------------------------------------------------|
E|-------------------------|-------------------------------------------------------------|

E|-15---12------------------12---15---12------------------12---|-15---12------------------12---15---12-----------------------|
B|-----------15---12---15------------------15---12---15--------|-----------15---12---15------------------15---12---15---12---|
G|-------------------------------------------------------------|-------------------------------------------------------------|
D|-------------------------------------------------------------|-------------------------------------------------------------|
A|-------------------------------------------------------------|-------------------------------------------------------------|
E|-------------------------------------------------------------|-------------------------------------------------------------|

E|---------------|-19--19--19--19--19--19--19--19----------------------------------|
B|-15------15----|---------------------------------19--19--19--19--19--19--19--19--|
G|---------------|-----------------------------------------------------------------|
D|---------------|-----------------------------------------------------------------|
A|---------------|-----------------------------------------------------------------|
E|---------------|-----------------------------------------------------------------|

E|-------------------------------------------------------|----------------------------------------|
B|-------------------------------------------------------|----------------------------------------|
G|-19--19--19--19--19--19--19--19------------------------|----------------------------------------|
D|---------------------------------19----12---19----12---|----------------------------------------|
A|-------------------------------------------------------|-19----12---19----12--------------------|
E|-------------------------------------------------------|-----------------------19----12---12----|

E|--------------------|-------12----------------------------|-----------------------------------------|
B|---------------15---|-15---------15---14---12--------12---|-----------------------------------------|
G|--------%-----------|---------------------------15--------|-14---13---12--------12------------------|
D|--------%-----------|-------------------------------------|----------------14--------14---12--------|
A|--------------------|-------------------------------------|------------------------------------14---|
E|-19-----------------|-------------------------------------|-----------------------------------------|

E|-----------------------------------------|---------------|---------------|---------|
B|-----------------------------------------|---------------|---------------|---------|
G|-----------------------------------------|--------%------|-16-----16-----|-16------|
D|-12--------------------------------------|--------%------|---------------|---------|
A|------14---13---12-----------------------|---------------|---------------|---------|
E|---------------------15---12---15---12---|-12------------|---------------|---------|

E|---------|-----------------------------|------------------------|-------------------------|
B|---------|-----------------------------|------------------------|-------------------------|
G|-16------|-%-----%---------9-----11----|-12----11---9----9------|-9-----------9-----11----|
D|---------|-%-----%----9----------------|------------------------|--------9----------------|
A|---------|-----------------------------|------------------------|-------------------------|
E|---------|-----------------------------|------------------------|-------------------------|

E|-----------------------------|-----------------------------|------------------------|
B|-----------------------------|-----------------------------|------------10---10-----|
G|-12----11---9----9-----------|-12----11---9----9-----------|-9-----%----------------|
D|-----------------------12----|-----------------------12----|-------%----------------|
A|-----------------------------|-----------------------------|------------------------|
E|-----------------------------|-----------------------------|------------------------|

E|---------|---------|-----------------------------|------------------------|-------------------------|
B|-10------|-10------|-10--------------------------|------------------------|-------------------------|
G|---------|---------|-------%---------9-----11----|-12----11---9----9------|-9-----------9-----11----|
D|---------|---------|-------%----9----------------|------------------------|--------9----------------|
A|---------|---------|-----------------------------|------------------------|-------------------------|
E|---------|---------|-----------------------------|------------------------|-------------------------|

E|-----------------------------|-----------------------------|------------------------|
B|-----------------------------|-----------------------------|------------10---10-----|
G|-12----11---9----9-----------|-12----11---9----9-----------|-9-----%----------------|
D|-----------------------12----|-----------------------12----|-------%----------------|
A|-----------------------------|-----------------------------|------------------------|
E|-----------------------------|-----------------------------|------------------------|

E|---------|---------|-----------------------------|------------------------|-------------------------|
B|-10------|-10------|-10--------------10----12----|-13----12---10---10-----|-10----------10----12----|
G|---------|---------|-------%----9----------------|------------------------|--------9----------------|
D|---------|---------|-------%---------------------|------------------------|-------------------------|
A|---------|---------|-----------------------------|------------------------|-------------------------|
E|---------|---------|-----------------------------|------------------------|-------------------------|

E|-----------------------------|-----------------------------|------------10---10-----|
B|-13----12---10---10----------|-13----12---10---10----------|------------------------|
G|-----------------------12----|-----------------------12----|-10----%----------------|
D|-----------------------------|-----------------------------|-------%----------------|
A|-----------------------------|-----------------------------|------------------------|
E|-----------------------------|-----------------------------|------------------------|

E|-10------|-10------|-10----10--------------------|------------------------|-------------------------|
B|---------|---------|-----------------------------|------------------------|-------------------------|
G|---------|---------|-----------------9-----11----|-12----11---9----9------|-9-----------9-----11----|
D|---------|---------|------------9----------------|------------------------|--------9----------------|
A|---------|---------|-----------------------------|------------------------|-------------------------|
E|---------|---------|-----------------------------|------------------------|-------------------------|

E|-----------------------------|-----------------------------|------------------------|
B|-----------------------------|-----------------------------|------------10---10-----|
G|-12----11---9----9-----------|-12----11---9----9-----------|-9-----%----------------|
D|-----------------------12----|-----------------------12----|-------%----------------|
A|-----------------------------|-----------------------------|------------------------|
E|-----------------------------|-----------------------------|------------------------|

E|---------|---------|---------|--------------------|---------|-------------------------|
B|-10------|-10------|-10------|--------------------|---------|-------------------------|
G|---------|---------|---------|--------------------|---------|-------------------9-----|
D|---------|---------|---------|-7------9----9------|-9-------|-7------9----9-----7-----|
A|---------|---------|---------|-5------7----7------|-7-------|-5------7----7-----------|
E|---------|---------|---------|--------------------|---------|-------------------------|

E|-------------------|--------------------|---------|-------------------------|-------------------|
B|-------------------|--------------------|---------|-------------------------|-------------------|
G|-9----7----7-------|--------------------|---------|-------------------9-----|-9----7----7-------|
D|-7----5----5-------|-7------9----9------|-9-------|-7------9----9-----7-----|-7----5----5-------|
A|-------------------|-5------7----7------|-7-------|-5------7----7-----------|-------------------|
E|-------------------|--------------------|---------|-------------------------|-------------------|

E|--------------------|---------|-------------------------|-------------------|--------------------|
B|--------------------|---------|-------------------------|-------------------|--------------------|
G|--------7----7------|-7-------|-------------------9-----|-9----7----7-------|--------------------|
D|-5------5----5------|-5-------|-5------7----7-----7-----|-7----5----5-------|-7------9----9------|
A|-3------------------|---------|-3------5----5-----------|-------------------|-5------7----7------|
E|--------------------|---------|-------------------------|-------------------|--------------------|

E|---------|-------------------------|-------------------|--------------------|---------|
B|---------|-------------------------|-------------------|--------------------|---------|
G|---------|-------------------9-----|-9----7----7-------|--------------------|---------|
D|-9-------|-7------9----9-----7-----|-7----5----5-------|-7------9----9------|-9-------|
A|-7-------|-5------7----7-----------|-------------------|-5------7----7------|-7-------|
E|---------|-------------------------|-------------------|--------------------|---------|

E|-------------------------|-------------------|--------------------|---------|-------------------------|
B|-------------------------|-------------------|--------------------|---------|-------------------------|
G|-------------------9-----|-9----7----7-------|--------------------|---------|-------------------9-----|
D|-7------9----9-----7-----|-7----5----5-------|-7------9----9------|-9-------|-7------9----9-----7-----|
A|-5------7----7-----------|-------------------|-5------7----7------|-7-------|-5------7----7-----------|
E|-------------------------|-------------------|--------------------|---------|-------------------------|

E|-------------------|--------------------|---------|--------------------|---------|
B|-------------------|--------------------|---------|--------------------|---------|
G|-9----7----7-------|--------7----7------|-7-------|--------7----7------|-7-------|
D|-7----5----5-------|-5------5----5------|-5-------|-5------5----5------|-5-------|
A|-------------------|-3------------------|---------|-3------------------|---------|
E|-------------------|--------------------|---------|--------------------|---------|

E|--------------------|---------|-------------------------|-------------------|-------------------------------------|
B|--------------------|---------|-------------------------|-------------------|-------------------------------------|
G|--------------------|---------|-------------------9-----|-9----7----7-------|-------------------------------------|
D|-7------9----9------|-9-------|-7------9----9-----7-----|-7----5----5-------|-7----9----9----9----9----9----9-----|
A|-5------7----7------|-7-------|-5------7----7-----------|-------------------|-5----7----7----7----7----7----7-----|
E|--------------------|---------|-------------------------|-------------------|-------------------------------------|

E|-----------------------------|-------------------------------------|-------------------------|
B|-----------------------------|-------------------------------------|-------------------------|
G|-----------------------------|-------------------------------------|-------------------------|
D|-9----9-----9----9-----9-----|-7----9----9----9----9----9----9-----|-7-----7-----5-----5-----|
A|-7----7-----7----7-----7-----|-5----7----7----7----7----7----7-----|-5-----5-----3-----3-----|
E|-----------------------------|-------------------------------------|-------------------------|

E|-------------------------------------|-----------------------------|-------------------------------------|
B|-------------------------------------|-----------------------------|-------------------------------------|
G|-------------------------------------|-----------------------------|-------------------------------------|
D|-7----9----9----9----9----9----9-----|-9----9-----9----9-----9-----|-7----9----9----9----9----9----9-----|
A|-5----7----7----7----7----7----7-----|-7----7-----7----7-----7-----|-5----7----7----7----7----7----7-----|
E|-------------------------------------|-----------------------------|-------------------------------------|

E|-------------------------|-------------------------------------|-----------------------------|
B|-------------------------|-------------------------------------|-----------------------------|
G|-------------------------|-------------------------------------|-----------------------------|
D|-7-----7-----5-----5-----|-5----7----7----7----7----7----7-----|-7----7-----7----7-----7-----|
A|-5-----5-----3-----3-----|-3----5----5----5----5----5----5-----|-5----5-----5----5-----5-----|
E|-------------------------|-------------------------------------|-----------------------------|

E|-------------------------------------|-------------------------|-------------------------------------|
B|-------------------------------------|-------------------------|-------------------------------------|
G|-------------------------------------|-------------------------|-------------------------------------|
D|-5----7----7----7----7----7----7-----|-------------------------|-7----9----9----9----9----9----9-----|
A|-3----5----5----5----5----5----5-----|-7-----7-----9-----9-----|-5----7----7----7----7----7----7-----|
E|-------------------------------------|-5-----5-----7-----7-----|-------------------------------------|

E|-----------------------------|-------------------------------------|-------------------------|
B|-----------------------------|-------------------------------------|-------------------------|
G|-----------------------------|-------------------------------------|-------------------------|
D|-9----9-----9----9-----9-----|-7----9----9----9----9----9----9-----|-7-----7-----5-----5-----|
A|-7----7-----7----7-----7-----|-5----7----7----7----7----7----7-----|-5-----5-----3-----3-----|
E|-----------------------------|-------------------------------------|-------------------------|

E|-----------------9-----10--9-------------------------|-----------------------------------------------------|
B|-----9---10--12----------------12--10--9---10----12--|-10--9----------------------10--10--10--10--9--------|
G|-11--------------------------------------------------|---------9----9---------------------------------9----|
D|-----------------------------------------------------|--------------------11--12---------------------------|
A|-----------------------------------------------------|-----------------------------------------------------|
E|-----------------------------------------------------|-----------------------------------------------------|

E|-----------------9-----10--9-------------------------|-----------------------------------------------------|
B|-----9---10--12----------------12--10--9---10----12--|-10--9----------------------10--10--10--10--9--------|
G|-11--------------------------------------------------|---------9----9---------------------------------9----|
D|-----------------------------------------------------|--------------------11--12---------------------------|
A|-----------------------------------------------------|-----------------------------------------------------|
E|-----------------------------------------------------|-----------------------------------------------------|

E|-----------------9-----10--9-------------------------|-----------------------------------------------------|
B|-----9---10--12----------------12--10--9---10----12--|-10--9----------------------10--10--10--10--9--------|
G|-11--------------------------------------------------|---------9----9---------------------------------9----|
D|-----------------------------------------------------|--------------------11--12---------------------------|
A|-----------------------------------------------------|-----------------------------------------------------|
E|-----------------------------------------------------|-----------------------------------------------------|

E|-----------------9-----10--9-------------------------|-----------------------------------------------------|
B|-----9---10--12----------------12--10--9---10----12--|-10--9----------------------10--10--10--10--9--------|
G|-11--------------------------------------------------|---------9----9---------------------------------9----|
D|-----------------------------------------------------|--------------------11--12---------------------------|
A|-----------------------------------------------------|-----------------------------------------------------|
E|-----------------------------------------------------|-----------------------------------------------------|

E|-----------------------------------------------|------------------------------------------------------------|
B|------10---10---10--12--10---9----10-------9---|-----9---9---9---9------------------------------9-----------|
G|-11------------------------------------11------|-%---------------------9---11--11--11---9---11------11--9---|
D|-----------------------------------------------|-%----------------------------------------------------------|
A|-----------------------------------------------|------------------------------------------------------------|
E|-----------------------------------------------|------------------------------------------------------------|

E|-----------------------------------------------------|------------------------------------------------------------|
B|-----10--10--10--10---10--12--10---9----10-------9---|-----9---9---9---9------------------------------9-----------|
G|-11------------------------------------------11------|-%---------------------9---11--11--11---9---11------11--9---|
D|-----------------------------------------------------|-%----------------------------------------------------------|
A|-----------------------------------------------------|------------------------------------------------------------|
E|-----------------------------------------------------|------------------------------------------------------------|

E|-----------------------------------------------------|------------------------------------------------------------|
B|-----10--10--10--10---10--12--10---9----10-------9---|-----9---9---9---9------------------------------9-----------|
G|-11------------------------------------------11------|-%---------------------9---11--11--11---9---11------11--9---|
D|-----------------------------------------------------|-%----------------------------------------------------------|
A|-----------------------------------------------------|------------------------------------------------------------|
E|-----------------------------------------------------|------------------------------------------------------------|

E|-----------------------------------------------------|------------------------------------------------------------|
B|-----10--10--10--10---10--12--10---9----10-------9---|-----9---9---9---9------------------------------9-----------|
G|-11------------------------------------------11------|-%---------------------9---11--11--11---9---11------11--9---|
D|-----------------------------------------------------|-%----------------------------------------------------------|
A|-----------------------------------------------------|------------------------------------------------------------|
E|-----------------------------------------------------|------------------------------------------------------------|

E|-----------------------------------------------------|------------------------------------------------------------|
B|-----10--10--10--10---10--12--10---9----10-------9---|-----9---9---9---9------------------------------9-----------|
G|-11------------------------------------------11------|-%---------------------9---11--11--11---9---11------11--9---|
D|-----------------------------------------------------|-%----------------------------------------------------------|
A|-----------------------------------------------------|------------------------------------------------------------|
E|-----------------------------------------------------|------------------------------------------------------------|

E|-----------------------------------------------------|------------------------------------------------------------|
B|-----10--10--10--10---10--12--10---9----10-------9---|-----9---9---9---9------------------------------9-----------|
G|-11------------------------------------------11------|-%---------------------9---11--11--11---9---11------11--9---|
D|-----------------------------------------------------|-%----------------------------------------------------------|
A|-----------------------------------------------------|------------------------------------------------------------|
E|-----------------------------------------------------|------------------------------------------------------------|

E|---------|---------|
B|---------|---------|
G|-%-------|-%-------|
D|-%-------|-%-------|
A|---------|---------|
E|---------|---------|
Iron Maiden - Afraid To Shoot Strangers (4)
Iron Maiden - Afraid To Shoot Strangers (4).gp4