Iron Maiden - Age of Innocence

Iron Maiden



Title: Age of Innocence
Album: Dance of Death
Artist: Iron Maiden
Author: 

Track 1: Dist. Guitar 1
E|---------|---------|---------|---------|---------------------------------|---------------------------------|
B|---------|---------|---------|---------|------------------12---12---8----|-10----10----10---8----8----10---|
G|-%-------|-%-------|-%-------|-%-------|-9-----9-----9-------------------|---------------------------------|
D|-%-------|-%-------|-%-------|-%-------|---------------------------------|---------------------------------|
A|---------|---------|---------|---------|---------------------------------|---------------------------------|
E|---------|---------|---------|---------|---------------------------------|---------------------------------|

E|----------------------------------------|----------------------------------------|
B|-10----10----10---10--12--10--8----7----|-8-----8-----8----8---10--8---7----8----|
G|----------------------------------------|----------------------------------------|
D|----------------------------------------|----------------------------------------|
A|----------------------------------------|----------------------------------------|
E|----------------------------------------|----------------------------------------|

E|---------------------------------|--------------------------------------------|---------------------------------------------------|
B|------------------12---12---8----|-10--12--10--8----10----10---8----8----10---|-10--12--10--8----10----10---10--12--10--8----7----|
G|-9-----9-----9-------------------|--------------------------------------------|---------------------------------------------------|
D|---------------------------------|--------------------------------------------|---------------------------------------------------|
A|---------------------------------|--------------------------------------------|---------------------------------------------------|
E|---------------------------------|--------------------------------------------|---------------------------------------------------|

E|---------|-------------------------------------|-------------------------------------|
B|-8-------|-------------------------------------|-------------------------------------|
G|---------|-----------9---------9---------9-----|-----------5---------5---------5-----|
D|---------|------9---------9---------9----------|------5---------5---------5----------|
A|---------|-7-----------------------------------|-3-----------------------------------|
E|---------|-------------------------------------|-------------------------------------|

E|-------------------------------------|-------------------------------------|-------------------------------------|
B|-------------------------------------|-------------------------------------|-------------------------------------|
G|-----------6---------6---------6-----|-----------5---------5---------5-----|-----------9---------9---------9-----|
D|------7---------7---------7----------|------5---------5---------5----------|------9---------9---------9----------|
A|-4-----------------------------------|-3-----------------------------------|-7-----------------------------------|
E|-------------------------------------|-------------------------------------|-------------------------------------|

E|-------------------------------------|-------------------------------------|-------------------------------------|
B|-------------------------------------|-------------------------------------|-------------------------------------|
G|-----------5---------5---------5-----|-----------6---------6---------6-----|-----------5---------5---------5-----|
D|------5---------5---------5----------|------7---------7---------7----------|------5---------5---------5----------|
A|-3-----------------------------------|-4-----------------------------------|-3-----------------------------------|
E|-------------------------------------|-------------------------------------|-------------------------------------|

E|-------------------------------------|-------------------------------------|-------------------------------------|
B|-------------------------------------|-------------------------------------|-------------------------------------|
G|-----------9---------9---------9-----|-----------5---------5---------5-----|-----------6---------6---------6-----|
D|------9---------9---------9----------|------5---------5---------5----------|------7---------7---------7----------|
A|-7-----------------------------------|-3-----------------------------------|-4-----------------------------------|
E|-------------------------------------|-------------------------------------|-------------------------------------|

E|-------------------------------------|-------------------------------------|-------------------------------------|
B|-------------------------------------|-------------------------------------|-------------------------------------|
G|-----------5---------5---------5-----|-----------9---------9---------9-----|-----------5---------5---------5-----|
D|------5---------5---------5----------|------9---------9---------9----------|------5---------5---------5----------|
A|-3-----------------------------------|-7-----------------------------------|-3-----------------------------------|
E|-------------------------------------|-------------------------------------|-------------------------------------|

E|-----------------------------------------|-----------------------------------------|
B|-----------------------------------------|-----------------------------------------|
G|-----------6---------6---------6---------|-----------------------------------------|
D|------7---------7---------7---------X----|-5----5----5----5----5----5----5----5----|
A|-4---------------------------------------|-3----3----3----3----3----3----3----3----|
E|-----------------------------------------|-----------------------------------------|

E|-----------------------------------------------------|-----------------------------------------------------|
B|-----------------------------------------------------|-----------------------------------------------------|
G|-----------------------------------------------------|-----------------------------------------------------|
D|-----------------4----4--------------------5----5----|-----------------7----7--------------------5----5----|
A|-----------------2----2--------------------3----3----|-----------------4----4--------------------3----3----|
E|-0---0---0---0-------------0---0---0---0-------------|-0---0---0---0-------------0---0---0---0-------------|

E|-----------------------------------------------------|-----------------------------------------------------|
B|-----------------------------------------------------|-----------------------------------------------------|
G|-----------------------------------------------------|-----------------------------------------------------|
D|-----------------4----4--------------------5----5----|-----------------7----7--------------------5----5----|
A|-----------------2----2--------------------3----3----|-----------------4----4--------------------3----3----|
E|-0---0---0---0-------------0---0---0---0-------------|-0---0---0---0-------------0---0---0---0-------------|

E|-----------------------------------------------------|-----------------------------------------------------|
B|-----------------------------------------------------|-----------------------------------------------------|
G|-----------------------------------------------------|-----------------------------------------------------|
D|-----------------4----4--------------------5----5----|-----------------7----7--------------------5----5----|
A|-----------------2----2--------------------3----3----|-----------------4----4--------------------3----3----|
E|-0---0---0---0-------------0---0---0---0-------------|-0---0---0---0-------------0---0---0---0-------------|

E|-----------------------------------------------------|-----------------------------------------------------|
B|-----------------------------------------------------|-----------------------------------------------------|
G|-----------------------------------------------------|-----------------------------------------------------|
D|-----------------4----4--------------------5----5----|-----------------7----7--------------------5----5----|
A|-----------------2----2--------------------3----3----|-----------------4----4--------------------3----3----|
E|-0---0---0---0-------------0---0---0---0-------------|-0---0---0---0-------------0---0---0---0-------------|

E|-----------------------------------------------------|-----------------------------------------------------|
B|-----------------------------------------------------|-----------------------------------------------------|
G|-----------------------------------------------------|-----------------------------------------------------|
D|-----------------4----4--------------------5----5----|-----------------7----7--------------------5----5----|
A|-----------------2----2--------------------3----3----|-----------------4----4--------------------3----3----|
E|-0---0---0---0-------------0---0---0---0-------------|-0---0---0---0-------------0---0---0---0-------------|

E|-----------------------------------------|-----------------------------------------|
B|-----------------------------------------|-----------------------------------------|
G|-----------------------------------------|-----------------------------------------|
D|-----------5---------2---------5---------|-----------5---------4---------5---------|
A|-3----3----3----3----3----3----3----3----|-2----2----2----2----2----2----2----2----|
E|-----------------------------------------|-----------------------------------------|

E|-----------------------------------------------------|-----------------------------------------------------|
B|-----------------------------------------------------|-----------------------------------------------------|
G|-----------------------------------------------------|-----------------------------------------------------|
D|-----------------4----4--------------------5----5----|-----------------7----7--------------------5----5----|
A|-----------------2----2--------------------3----3----|-----------------4----4--------------------3----3----|
E|-0---0---0---0-------------0---0---0---0-------------|-0---0---0---0-------------0---0---0---0-------------|

E|-----------------------------------------------------|-----------------------------------------------------|
B|-----------------------------------------------------|-----------------------------------------------------|
G|-----------------------------------------------------|-----------------------------------------------------|
D|-----------------4----4--------------------5----5----|-----------------7----7--------------------5----5----|
A|-----------------2----2--------------------3----3----|-----------------4----4--------------------3----3----|
E|-0---0---0---0-------------0---0---0---0-------------|-0---0---0---0-------------0---0---0---0-------------|

E|-----------------------------------------------------|-----------------------------------------------------|
B|-----------------------------------------------------|-----------------------------------------------------|
G|-----------------------------------------------------|-----------------------------------------------------|
D|-----------------4----4--------------------5----5----|-----------------7----7--------------------5----5----|
A|-----------------2----2--------------------3----3----|-----------------4----4--------------------3----3----|
E|-0---0---0---0-------------0---0---0---0-------------|-0---0---0---0-------------0---0---0---0-------------|

E|-----------------------------------------|-----------------------------------------|
B|-----------------------------------------|-----------------------------------------|
G|-----------------------------------------|-----------------------------------------|
D|-----------5---------2---------5---------|-----------5---------4---------5---------|
A|-3----3----3----3----3----3----3----3----|-2----2----2----2----2----2----2----2----|
E|-----------------------------------------|-----------------------------------------|

E|-----------------------------------------|-----------------------------------------|
B|-----------------------------------------|-----------------------------------------|
G|-----------------------------------------|-----------------------------------------|
D|-7----7----7----7----7----7----7----7----|-7----7----7----7----7----7----7----7----|
A|-5----5----5----5----5----5----5----5----|-5----5----5----5----5----5----5----5----|
E|-----------------------------------------|-----------------------------------------|

E|-------------------------------------|-------------------------------------|-------------------------------------|
B|-------------------------------------|-------------------------------------|-------------------------------------|
G|-------------------------------------|-------------------------------------|-------------------------------------|
D|-------------------------------------|-7-----7-----------------------------|-------------------------------------|
A|-5-----5----5----5----5----5----5----|-5-----5----7----7----7----7----7----|-5-----5----5----5----5----5----5----|
E|-2-----2----3----3----3----3----3----|------------5----5----5----5----5----|-2-----2----3----3----3----3----3----|

E|-------------------------------------|-------------------------------------|-------------------------------------|
B|-------------------------------------|-------------------------------------|-------------------------------------|
G|-------------------------------------|-------------------------------------|-------------------------------------|
D|-7-----7-----------------------------|-------------------------------------|-7-----7-----------------------------|
A|-5-----5----7----7----7----7----7----|-5-----5----5----5----5----5----5----|-5-----5----7----7----7----7----7----|
E|------------5----5----5----5----5----|-2-----2----3----3----3----3----3----|------------5----5----5----5----5----|

E|-------------------------------------|-------------------------------------|-------------------------------------|
B|-------------------------------------|-------------------------------------|-------------------------------------|
G|-------------------------------------|-------------------------------------|-------------------------------------|
D|-------------------------------------|-7-----7-----------------------------|-------------------------------------|
A|-5-----5----5----5----5----5----5----|-5-----5----7----7----7----7----7----|-5-----5----5----5----5----5----5----|
E|-2-----2----3----3----3----3----3----|------------5----5----5----5----5----|-2-----2----3----3----3----3----3----|

E|-------------------------------------|-------------------------------------|-------------------------------------|
B|-------------------------------------|-------------------------------------|-------------------------------------|
G|-------------------------------------|-------------------------------------|-------------------------------------|
D|-7-----7-----------------------------|-------------------------------------|-7-----7-----------------------------|
A|-5-----5----7----7----7----7----7----|-5-----5----5----5----5----5----5----|-5-----5----7----7----7----7----7----|
E|------------5----5----5----5----5----|-2-----2----3----3----3----3----3----|------------5----5----5----5----5----|

E|-------------------------------------|-------------------------------------|-----------------------------------------|
B|-------------------------------------|-------------------------------------|-----------------------------------------|
G|-------------------------------------|-------------------------------------|-----------------------------------------|
D|-------------------------------------|-7-----7-----------------------------|-----------------------------------------|
A|-5-----5----5----5----5----5----5----|-5-----5----7----7----7----7----7----|-5----5----5----5----5----5----5----5----|
E|-2-----2----3----3----3----3----3----|------------5----5----5----5----5----|-3----3----3----3----3----3----3----3----|

E|-----------------------------------------|-----------------------------------------|
B|-----------------------------------------|-----------------------------------------|
G|-----------------------------------------|-----------------------------------------|
D|-----------------------------------------|-----------------------------------------|
A|-5----5----5----5----5----5----5----5----|-5----5----5----5----5----5----5----5----|
E|-3----3----3----3----3----3----3----3----|-2----2----2----2----2----2----2----2----|

E|-----------------------------------------|-----------------------------------------------------|
B|-----------------------------------------|-----------------------------------------------------|
G|-----------------------------------------|-----------------------------------------------------|
D|-----------------------------------------|-----------------4----4--------------------5----5----|
A|-5----5----5----5----5----5----5----5----|-----------------2----2--------------------3----3----|
E|-2----2----2----2----2----2----2----2----|-0---0---0---0-------------0---0---0---0-------------|

E|-----------------------------------------------------|-----------------------------------------------------|
B|-----------------------------------------------------|-----------------------------------------------------|
G|-----------------------------------------------------|-----------------------------------------------------|
D|-----------------7----7--------------------5----5----|-----------------4----4--------------------5----5----|
A|-----------------4----4--------------------3----3----|-----------------2----2--------------------3----3----|
E|-0---0---0---0-------------0---0---0---0-------------|-0---0---0---0-------------0---0---0---0-------------|

E|-----------------------------------------------------|-----------------------------------------------------|
B|-----------------------------------------------------|-----------------------------------------------------|
G|-----------------------------------------------------|-----------------------------------------------------|
D|-----------------7----7--------------------5----5----|-----------------4----4--------------------5----5----|
A|-----------------4----4--------------------3----3----|-----------------2----2--------------------3----3----|
E|-0---0---0---0-------------0---0---0---0-------------|-0---0---0---0-------------0---0---0---0-------------|

E|-----------------------------------------------------|-----------------------------------------------------|
B|-----------------------------------------------------|-----------------------------------------------------|
G|-----------------------------------------------------|-----------------------------------------------------|
D|-----------------7----7--------------------5----5----|-----------------4----4--------------------5----5----|
A|-----------------4----4--------------------3----3----|-----------------2----2--------------------3----3----|
E|-0---0---0---0-------------0---0---0---0-------------|-0---0---0---0-------------0---0---0---0-------------|

E|-----------------------------------------------------|-----------------------------------------|
B|-----------------------------------------------------|-----------------------------------------|
G|-----------------------------------------------------|-----------------------------------------|
D|-----------------7----7--------------------5----5----|-----------5---------2---------5---------|
A|-----------------4----4--------------------3----3----|-3----3----3----3----3----3----3----3----|
E|-0---0---0---0-------------0---0---0---0-------------|-----------------------------------------|

E|-----------------------------------------|-----------------------------------------------------|
B|-----------------------------------------|-----------------------------------------------------|
G|-----------------------------------------|-----------------------------------------------------|
D|-----------5---------4---------5---------|-----------------4----4--------------------5----5----|
A|-2----2----2----2----2----2----2----2----|-----------------2----2--------------------3----3----|
E|-----------------------------------------|-0---0---0---0-------------0---0---0---0-------------|

E|-----------------------------------------------------|-----------------------------------------------------|
B|-----------------------------------------------------|-----------------------------------------------------|
G|-----------------------------------------------------|-----------------------------------------------------|
D|-----------------7----7--------------------5----5----|-----------------4----4--------------------5----5----|
A|-----------------4----4--------------------3----3----|-----------------2----2--------------------3----3----|
E|-0---0---0---0-------------0---0---0---0-------------|-0---0---0---0-------------0---0---0---0-------------|

E|-----------------------------------------------------|-----------------------------------------------------|
B|-----------------------------------------------------|-----------------------------------------------------|
G|-----------------------------------------------------|-----------------------------------------------------|
D|-----------------7----7--------------------5----5----|-----------------4----4--------------------5----5----|
A|-----------------4----4--------------------3----3----|-----------------2----2--------------------3----3----|
E|-0---0---0---0-------------0---0---0---0-------------|-0---0---0---0-------------0---0---0---0-------------|

E|-----------------------------------------------------|-----------------------------------------|
B|-----------------------------------------------------|-----------------------------------------|
G|-----------------------------------------------------|-----------------------------------------|
D|-----------------7----7--------------------5----5----|-----------5---------2---------5---------|
A|-----------------4----4--------------------3----3----|-3----3----3----3----3----3----3----3----|
E|-0---0---0---0-------------0---0---0---0-------------|-----------------------------------------|

E|-----------------------------------------|-----------------------------------------|
B|-----------------------------------------|-----------------------------------------|
G|-----------------------------------------|-----------------------------------------|
D|-----------5---------4---------5---------|-7----7----7----7----7----7----7----7----|
A|-2----2----2----2----2----2----2----2----|-5----5----5----5----5----5----5----5----|
E|-----------------------------------------|-----------------------------------------|

E|-----------------------------------------|-------------------------------------|-------------------------------------|
B|-----------------------------------------|-------------------------------------|-------------------------------------|
G|-----------------------------------------|-------------------------------------|-------------------------------------|
D|-7----7----7----7----7----7----7----7----|-------------------------------------|-7-----7-----------------------------|
A|-5----5----5----5----5----5----5----5----|-5-----5----5----5----5----5----5----|-5-----5----7----7----7----7----7----|
E|-----------------------------------------|-2-----2----3----3----3----3----3----|------------5----5----5----5----5----|

E|-------------------------------------|-------------------------------------|-------------------------------------|
B|-------------------------------------|-------------------------------------|-------------------------------------|
G|-------------------------------------|-------------------------------------|-------------------------------------|
D|-------------------------------------|-7-----7-----------------------------|-------------------------------------|
A|-5-----5----5----5----5----5----5----|-5-----5----7----7----7----7----7----|-5-----5----5----5----5----5----5----|
E|-2-----2----3----3----3----3----3----|------------5----5----5----5----5----|-2-----2----3----3----3----3----3----|

E|-------------------------------------|-------------------------------------|-------------------------------------|
B|-------------------------------------|-------------------------------------|-------------------------------------|
G|-------------------------------------|-------------------------------------|-------------------------------------|
D|-7-----7-----------------------------|-------------------------------------|-7-----7-----------------------------|
A|-5-----5----7----7----7----7----7----|-5-----5----5----5----5----5----5----|-5-----5----7----7----7----7----7----|
E|------------5----5----5----5----5----|-2-----2----3----3----3----3----3----|------------5----5----5----5----5----|

E|-------------------------------------|-------------------------------------|-------------------------------------|
B|-------------------------------------|-------------------------------------|-------------------------------------|
G|-------------------------------------|-------------------------------------|-------------------------------------|
D|-------------------------------------|-7-----7-----------------------------|-------------------------------------|
A|-5-----5----5----5----5----5----5----|-5-----5----7----7----7----7----7----|-5-----5----5----5----5----5----5----|
E|-2-----2----3----3----3----3----3----|------------5----5----5----5----5----|-2-----2----3----3----3----3----3----|

E|-------------------------------------|-------------------------------------|-------------------------------------|
B|-------------------------------------|-------------------------------------|-------------------------------------|
G|-------------------------------------|-------------------------------------|-------------------------------------|
D|-7-----7-----------------------------|-------------------------------------|-7-----7-----------------------------|
A|-5-----5----7----7----7----7----7----|-5-----5----5----5----5----5----5----|-5-----5----7----7----7----7----7----|
E|------------5----5----5----5----5----|-2-----2----3----3----3----3----3----|------------5----5----5----5----5----|

E|-----------------------------------------|-----------------------------------------|
B|-----------------------------------------|-----------------------------------------|
G|-----------------------------------------|-----------------------------------------|
D|-----------------------------------------|-----------------------------------------|
A|-5----5----5----5----5----5----5----5----|-5----5----5----5----5----5----5----5----|
E|-3----3----3----3----3----3----3----3----|-3----3----3----3----3----3----3----3----|

E|-----------------------------------------|-----------------------------------------|
B|-----------------------------------------|-----------------------------------------|
G|-----------------------------------------|-----------------------------------------|
D|-----------------------------------------|-----------------------------------------|
A|-5----5----5----5----5----5----5----5----|-5----5----5----5----5----5----5----5----|
E|-2----2----2----2----2----2----2----2----|-2----2----2----2----2----2----2----2----|

E|---------|------------------------14---|-14----12--------12-----|-12----12---------------12-14-15-14-12------12--14--12-----12-14-12--|
B|---------|-------------------0---------|------------15----------|-----------15--------13-----------------15--------------15-----------|
G|---------|-----------------------------|------------------------|---------------%--14-------------------------------------------------|
D|---------|-----------------------------|------------------------|---------------%-----------------------------------------------------|
A|---------|-----------------------------|------------------------|---------------------------------------------------------------------|
E|-0-------|-0-----0-----0---------------|------------------------|---------------------------------------------------------------------|

E|-14--15--14--15--14--15--12--14--12--14--12--14--12---14---14--15--14--15-14-15-14-|
B|-----------------------------------------------------------------------------------|
G|-----------------------------------------------------------------------------------|
D|-----------------------------------------------------------------------------------|
A|-----------------------------------------------------------------------------------|
E|-----------------------------------------------------------------------------------|

E|-12--14--12--12--10--12--8--10-8---8---7---7-------------------|-----------------------------------------|
B|-----------------------------------------------10----10---8----|-8--------------7----7--------------8----|
G|---------------------------------------------------------------|------9----9--------------7----7---------|
D|---------------------------------------------------------------|-----------------------------------------|
A|---------------------------------------------------------------|-----------------------------------------|
E|---------------------------------------------------------------|-----------------------------------------|

E|---------------------------------|------------------------------------------------------------------|
B|-8-------------------------------|-17------17------17------17------17-20-17------17-19-17--19--20---|
G|------9----7----9----9-----9-----|-----19------19------19------19------------19---------------------|
D|---------------------------------|------------------------------------------------------------------|
A|---------------------------------|------------------------------------------------------------------|
E|---------------------------------|------------------------------------------------------------------|

E|----------------------------------------------20--|-20----20---19-20-19-17-19-----|
B|-20---19---19--20--19--17--19--19----19-----------|-------------------------------|
G|------------------------------------------%-------|-------------------------------|
D|------------------------------------------%-------|-------------------------------|
A|--------------------------------------------------|-------------------------------|
E|--------------------------------------------------|-------------------------------|

E|-17-19-20-19-20--19--20--17-19-17-19-15-17-15-17-14---15---15----|-12--0---0---0---0---0---10--0---0---8---0---0---0---0---0---7---0---0---8---0---0---10--0---0---|
B|-----------------------------------------------------------------|-------------------------------------------------------------------------------------------------|
G|-----------------------------------------------------------------|-------------------------------------------------------------------------------------------------|
D|-----------------------------------------------------------------|-------------------------------------------------------------------------------------------------|
A|-----------------------------------------------------------------|-------------------------------------------------------------------------------------------------|
E|-----------------------------------------------------------------|-------------------------------------------------------------------------------------------------|

E|-8---0---0---0---0---0---7---0---0---5---0---0---0---0---0---3---0---0---2---0---0---3---0---0---|
B|-------------------------------------------------------------------------------------------------|
G|-------------------------------------------------------------------------------------------------|
D|-------------------------------------------------------------------------------------------------|
A|-------------------------------------------------------------------------------------------------|
E|-------------------------------------------------------------------------------------------------|

E|-12---14---12--14--12------12--------------12------12--14--12------|-12--14--12-----------------------------------------------|
B|-----------------------15------15--12--15------15--------------15--|-------------15--12------12-------------------------------|
G|-------------------------------------------------------------------|---------------------14------12------14---14-12-14--14----|
D|-------------------------------------------------------------------|---------------------------------14-----------------------|
A|-------------------------------------------------------------------|----------------------------------------------------------|
E|-------------------------------------------------------------------|----------------------------------------------------------|

E|-----------------------------------------------------------|--------------------------------------------|
B|-17------17--17-------17--17-------17--17------17--17------|---------17-20-17------17-20-17------20-----|
G|-----19----------19-----------19-----------19----------19--|-19--19------------19------------19---------|
D|-----------------------------------------------------------|--------------------------------------------|
A|-----------------------------------------------------------|--------------------------------------------|
E|-----------------------------------------------------------|--------------------------------------------|

E|-------------------------------|-8-----8-----8-----10----------|-8-----8-----8-----------------|
B|-8-----8-----8-----10----12----|-10----10----10----12----12----|-10----10----10----12----10----|
G|-9-----9-----9-----11----12----|-------------------------12----|-------------------12----11----|
D|-------------------------------|-------------------------------|-------------------------------|
A|-------------------------------|-------------------------------|-------------------------------|
E|-------------------------------|-------------------------------|-------------------------------|

E|-------------------------------|-------------------------------|-8-----8-----8-----10----------|
B|-12----12----12----10----7-----|-8-----8-----8-----10----12----|-10----10----10----12----12----|
G|-12----12----12----11----7-----|-9-----9-----9-----11----12----|-------------------------12----|
D|-------------------------------|-------------------------------|-------------------------------|
A|-------------------------------|-------------------------------|-------------------------------|
E|-------------------------------|-------------------------------|-------------------------------|

E|-8-----8-----8-----------------|-------------------------------|-------------------------------|
B|-10----10----10----12----10----|-12----12----12----10----7-----|-8-----8-----8-----10----12----|
G|-------------------12----11----|-12----12----12----11----7-----|-9-----9-----9-----11----12----|
D|-------------------------------|-------------------------------|-------------------------------|
A|-------------------------------|-------------------------------|-------------------------------|
E|-------------------------------|-------------------------------|-------------------------------|

E|-8-----8-----8-----10----------|-8-----8-----8-----------------|-------------------------------|
B|-10----10----10----12----12----|-10----10----10----12----10----|-12----12----12----10----7-----|
G|-------------------------12----|-------------------12----11----|-12----12----12----11----7-----|
D|-------------------------------|-------------------------------|-------------------------------|
A|-------------------------------|-------------------------------|-------------------------------|
E|-------------------------------|-------------------------------|-------------------------------|

E|-------------------------------|-8-----8-----8-----10----------|-8-----8-----8-----------------|
B|-8-----8-----8-----10----12----|-10----10----10----12----12----|-10----10----10----12----10----|
G|-9-----9-----9-----11----12----|-------------------------12----|-------------------12----11----|
D|-------------------------------|-------------------------------|-------------------------------|
A|-------------------------------|-------------------------------|-------------------------------|
E|-------------------------------|-------------------------------|-------------------------------|

E|-------------------------------|-----------------------------------------|-----------------------------------------|
B|-12----12----12----10----7-----|-----------------------------------------|-----------------------------------------|
G|-12----12----12----11----7-----|-----------------------------------------|-----------------------------------------|
D|-------------------------------|-----------------------------------------|-----------------------------------------|
A|-------------------------------|-2----4----4----4----4----4----4----4----|-2----4----4----4----4----4----4----4----|
E|-------------------------------|-0----2----2----2----2----2----2----2----|-0----2----2----2----2----2----2----2----|

E|-----------------------------------------|-----------------------------------------|
B|-----------------------------------------|-----------------------------------------|
G|-----------------------------------------|-----------------------------------------|
D|-----------------------------------------|-----------------------------------------|
A|-2----4----4----4----4----4----4----4----|-2----4----4----4----4----4----4----4----|
E|-0----2----2----2----2----2----2----2----|-0----2----2----2----2----2----2----2----|

E|-----------------------------------------|-----------------------------------------|
B|-----------------------------------------|-----------------------------------------|
G|-----------------------------------------|-----------------------------------------|
D|-7----9----9----9----9----9----9----9----|-7----9----9----9----9----9----9----9----|
A|-5----7----7----7----7----7----7----7----|-5----7----7----7----7----7----7----7----|
E|-----------------------------------------|-----------------------------------------|

E|-----------------------------------------|-----------------------------------------|
B|-----------------------------------------|-----------------------------------------|
G|-----------------------------------------|-----------------------------------------|
D|-----------------------------------------|-----------------------------------------|
A|-2----4----4----4----4----4----4----4----|-2----4----4----4----4----4----4----4----|
E|-0----2----2----2----2----2----2----2----|-0----2----2----2----2----2----2----2----|

E|---------------------------------|---------|---------|--------------------|---------------------------------|
B|---------------------------------|---------|---------|--------------------|---------------------------------|
G|---------------------------------|---------|---------|--------------------|---------------------------------|
D|---------------------------------|---------|---------|--------------------|---------------------------------|
A|-7-----7----7----7----7----7-----|-5-------|-5-------|-5------5-----5-----|-7-----7----7----7----7----7-----|
E|-5-----5----5----5----5----5-----|-3-------|-2-------|-2------2-----3-----|-5-----5----5----5----5----5-----|

E|---------|---------|--------------------|-----------------------------------------------------|
B|---------|---------|--------------------|-----------------------------------------------------|
G|---------|---------|--------------------|-----------------------------------------------------|
D|---------|---------|--------------------|-----------------4----4--------------------5----5----|
A|-5-------|-5-------|-5------5-----5-----|-----------------2----2--------------------3----3----|
E|-3-------|-2-------|-2------2-----3-----|-0---0---0---0-------------0---0---0---0-------------|

E|-----------------------------------------------------|-----------------------------------------------------|
B|-----------------------------------------------------|-----------------------------------------------------|
G|-----------------------------------------------------|-----------------------------------------------------|
D|-----------------7----7--------------------5----5----|-----------------4----4--------------------5----5----|
A|-----------------4----4--------------------3----3----|-----------------2----2--------------------3----3----|
E|-0---0---0---0-------------0---0---0---0-------------|-0---0---0---0-------------0---0---0---0-------------|

E|-----------------------------------------------------|-----------------------------------------------------|
B|-----------------------------------------------------|-----------------------------------------------------|
G|-----------------------------------------------------|-----------------------------------------------------|
D|-----------------7----7--------------------5----5----|-----------------4----4--------------------5----5----|
A|-----------------4----4--------------------3----3----|-----------------2----2--------------------3----3----|
E|-0---0---0---0-------------0---0---0---0-------------|-0---0---0---0-------------0---0---0---0-------------|

E|-----------------------------------------------------|-----------------------------------------|
B|-----------------------------------------------------|-----------------------------------------|
G|-----------------------------------------------------|-----------------------------------------|
D|-----------------7----7--------------------5----5----|-----------5---------2---------5---------|
A|-----------------4----4--------------------3----3----|-3----3----3----3----3----3----3----3----|
E|-0---0---0---0-------------0---0---0---0-------------|-----------------------------------------|

E|-----------------------------------------|-----------------------------------------|
B|-----------------------------------------|-----------------------------------------|
G|-----------------------------------------|-----------------------------------------|
D|-----------5---------4---------5---------|-7----7----7----7----7----7----7----7----|
A|-2----2----2----2----2----2----2----2----|-5----5----5----5----5----5----5----5----|
E|-----------------------------------------|-----------------------------------------|

E|-----------------------------------------|-------------------------------------|-------------------------------------|
B|-----------------------------------------|-------------------------------------|-------------------------------------|
G|-----------------------------------------|-------------------------------------|-------------------------------------|
D|-7----7----7----7----7----7----7----7----|-------------------------------------|-7-----7-----------------------------|
A|-5----5----5----5----5----5----5----5----|-5-----5----5----5----5----5----5----|-5-----5----7----7----7----7----7----|
E|-----------------------------------------|-2-----2----3----3----3----3----3----|------------5----5----5----5----5----|

E|-------------------------------------|-------------------------------------|-------------------------------------|
B|-------------------------------------|-------------------------------------|-------------------------------------|
G|-------------------------------------|-------------------------------------|-------------------------------------|
D|-------------------------------------|-7-----7-----------------------------|-------------------------------------|
A|-5-----5----5----5----5----5----5----|-5-----5----7----7----7----7----7----|-5-----5----5----5----5----5----5----|
E|-2-----2----3----3----3----3----3----|------------5----5----5----5----5----|-2-----2----3----3----3----3----3----|

E|-------------------------------------|-------------------------------------|-------------------------------------|
B|-------------------------------------|-------------------------------------|-------------------------------------|
G|-------------------------------------|-------------------------------------|-------------------------------------|
D|-7-----7-----------------------------|-------------------------------------|-7-----7-----------------------------|
A|-5-----5----7----7----7----7----7----|-5-----5----5----5----5----5----5----|-5-----5----7----7----7----7----7----|
E|------------5----5----5----5----5----|-2-----2----3----3----3----3----3----|------------5----5----5----5----5----|

E|-------------------------------------|-------------------------------------|-------------------------------------|
B|-------------------------------------|-------------------------------------|-------------------------------------|
G|-------------------------------------|-------------------------------------|-------------------------------------|
D|-------------------------------------|-7-----7-----------------------------|-------------------------------------|
A|-5-----5----5----5----5----5----5----|-5-----5----7----7----7----7----7----|-5-----5----5----5----5----5----5----|
E|-2-----2----3----3----3----3----3----|------------5----5----5----5----5----|-2-----2----3----3----3----3----3----|

E|-------------------------------------|-------------------------------------|-------------------------------------|
B|-------------------------------------|-------------------------------------|-------------------------------------|
G|-------------------------------------|-------------------------------------|-------------------------------------|
D|-7-----7-----------------------------|-------------------------------------|-7-----7-----------------------------|
A|-5-----5----7----7----7----7----7----|-5-----5----5----5----5----5----5----|-5-----5----7----7----7----7----7----|
E|------------5----5----5----5----5----|-2-----2----3----3----3----3----3----|------------5----5----5----5----5----|

E|-----------------------------------------|-----------------------------------------|
B|-----------------------------------------|-----------------------------------------|
G|-----------------------------------------|-----------------------------------------|
D|-----------------------------------------|-----------------------------------------|
A|-5----5----5----5----5----5----5----5----|-5----5----5----5----5----5----5----5----|
E|-3----3----3----3----3----3----3----3----|-3----3----3----3----3----3----3----3----|

E|-----------------------------------------|-----------------------------------------|
B|-----------------------------------------|-----------------------------------------|
G|-----------------------------------------|-----------------------------------------|
D|-----------------------------------------|-----------------------------------------|
A|-5----5----5----5----5----5----5----5----|-5----5----5----5----5----5----5----5----|
E|-2----2----2----2----2----2----2----2----|-2----2----2----2----2----2----2----2----|

E|-12---12---12-----------|-14---14---14-----------|-15---15---15-----------|-17---17---17-----------------|
B|-15---15---15-----------|-17---17---17-----------|-18---18---18-----------|-20---20---20-----------------|
G|------------------%-----|------------------%-----|------------------%-----|------------------%-----%-----|
D|------------------%-----|------------------%-----|------------------%-----|------------------%-----%-----|
A|------------------------|------------------------|------------------------|------------------------------|
E|------------------------|------------------------|------------------------|------------------------------|

E|---------------------------------|----------------------------------------|----------------------------------------|
B|------------------12---12---8----|-10--12--10--8----10----10----8----10---|-10----10----10---10--12--10--8----7----|
G|-9-----9-----9-------------------|----------------------------------------|----------------------------------------|
D|---------------------------------|----------------------------------------|----------------------------------------|
A|---------------------------------|----------------------------------------|----------------------------------------|
E|---------------------------------|----------------------------------------|----------------------------------------|

E|----------------------------------------|---------------------------------|----------------------------------------|
B|-8-----8-----8----8---10--8---7----8----|------------------12---12---8----|-10--12--10--8----10----10----8----10---|
G|----------------------------------------|-9-----9-----9-------------------|----------------------------------------|
D|----------------------------------------|---------------------------------|----------------------------------------|
A|----------------------------------------|---------------------------------|----------------------------------------|
E|----------------------------------------|---------------------------------|----------------------------------------|

E|---------------------------------------------------|---------|-------------------------------------|
B|-10--12--10--8----10----10---10--12--10--8----7----|-8-------|-------------------------------------|
G|---------------------------------------------------|---------|-----------9---------9---------9-----|
D|---------------------------------------------------|---------|------9---------9---------9----------|
A|---------------------------------------------------|---------|-7-----------------------------------|
E|---------------------------------------------------|---------|-------------------------------------|

E|-------------------------------------|-----------------------------------------|-----------------------------------------|
B|-------------------------------------|-----------------------------------------|-----------------------------------------|
G|-----------5---------5---------5-----|-----------6---------6---------6---------|-----------5---------5---------5---------|
D|------5---------5---------5----------|------7---------7---------7---------7----|------5---------5---------5---------5----|
A|-3-----------------------------------|-4---------------------------------------|-3---------------------------------------|
E|-------------------------------------|-----------------------------------------|-----------------------------------------|

E|---------------------------0-----|-0-------|---------|
B|---------------------3-----------|---------|---------|
G|---------------------0-----------|---------|-%-------|
D|-----------4---------4-----------|---------|-%-------|
A|------2---------2----------------|---------|---------|
E|-0-------------------------------|---------|---------|
Iron Maiden - Age of Innocence
Iron Maiden - Age of Innocence.gp3