Iron Maiden - Alexander the Great

Iron Maiden



Title: Alexander the Great 
Album: Somewhere In Time
Artist: Iron Maiden
Author: 

Track 1: Lead Guitar
E|---------|----------------------------------------------------|----------------------------------------------------|
B|---------|----------------------------------------------------|----------------------------------------------------|
G|-%-------|-----------9--------9-------9-------9-------9-------|-----------9--------9-------9-------9-------9-------|
D|-%-------|------9---------9-------9-------9-------9-------9---|------9---------9-------9-------9-------9-------9---|
A|---------|-7--------------------------------------------------|-7--------------------------------------------------|
E|---------|----------------------------------------------------|----------------------------------------------------|

E|----------------------------------------------------|----------------------------------------------------|
B|----------------------------------------------------|----------------------------------------------------|
G|-----------9--------9-------9-------9-------9-------|-----------9--------9-------9-------9-------9-------|
D|------9---------9-------9-------9-------9-------9---|------9---------9-------9-------9-------9-------9---|
A|-7--------------------------------------------------|-7--------------------------------------------------|
E|----------------------------------------------------|----------------------------------------------------|

E|----------------------------------------------------|----------------------------------------------------|
B|----------------------------------------------------|----------------------------------------------------|
G|-----------7--------7-------7-------7-------7-------|-----------7--------7-------7-------7-------7-------|
D|------7---------7-------7-------7-------7-------7---|------7---------7-------7-------7-------7-------7---|
A|-5--------------------------------------------------|-5--------------------------------------------------|
E|----------------------------------------------------|----------------------------------------------------|

E|----------------------------------------------------|----------------------------------------------------|
B|----------------------------------------------------|----------------------------------------------------|
G|-----------7--------7-------7-------7-------7-------|-----------7--------7-------7-------7-------7-------|
D|------7---------7-------7-------7-------7-------7---|------7---------7-------7-------7-------7-------7---|
A|-5--------------------------------------------------|-5--------------------------------------------------|
E|----------------------------------------------------|----------------------------------------------------|

E|----------------------------------------------------|----------------------------------------------------|
B|----------------------------------------------------|----------------------------------------------------|
G|-----------9--------9-------9-------9-------9-------|-----------9--------9-------9-------9-------9-------|
D|------9---------9-------9-------9-------9-------9---|------9---------9-------9-------9-------9-------9---|
A|-7--------------------------------------------------|-7--------------------------------------------------|
E|----------------------------------------------------|----------------------------------------------------|

E|----------------------------------------------------|----------------------------------------------------|
B|----------------------------------------------------|----------------------------------------------------|
G|-----------9--------9-------9-------9-------9-------|-----------9--------9-------9-------9-------9-------|
D|------9---------9-------9-------9-------9-------9---|------9---------9-------9-------9-------9-------9---|
A|-7--------------------------------------------------|-7--------------------------------------------------|
E|----------------------------------------------------|----------------------------------------------------|

E|----------------------------------------------------|----------------------------------------------------|
B|----------------------------------------------------|----------------------------------------------------|
G|-----------7--------7-------7-------7-------7-------|-----------7--------7-------7-------7-------7-------|
D|------7---------7-------7-------7-------7-------7---|------7---------7-------7-------7-------7-------7---|
A|-5--------------------------------------------------|-5--------------------------------------------------|
E|----------------------------------------------------|----------------------------------------------------|

E|----------------------------------------------------|----------------------------------------------------|
B|----------------------------------------------------|----------------------------------------------------|
G|-----------7--------7-------7-------7-------7-------|-----------7--------7-------7-------7-------7-------|
D|------7---------7-------7-------7-------7-------7---|------7---------7-------7-------7-------7-------7---|
A|-5--------------------------------------------------|-5--------------------------------------------------|
E|----------------------------------------------------|----------------------------------------------------|

E|----------------------------------------|----------------------------------------|
B|------------------------10--------------|------------------------10--------------|
G|-9------9---9---11--12------12--11------|-9------9---9---11--12------12--11------|
D|------------------------------------12--|------------------------------------12--|
A|----------------------------------------|----------------------------------------|
E|----------------------------------------|----------------------------------------|

E|----------------------------------------------|---------------------------------|
B|------12----12----------------10--------------|---------------------------------|
G|-9----------------9---11--12------12--11------|-9----9--9--12--9------9---------|
D|------------------------------------------12--|----------------------------12---|
A|----------------------------------------------|---------------------------------|
E|----------------------------------------------|---------------------------------|

E|----------------------------------------|----------------------------------------|
B|------------------------10--------------|------------------------10--------------|
G|-9------9---9---11--12------12--11------|-9------9---9---11--12------12--11------|
D|------------------------------------12--|------------------------------------12--|
A|----------------------------------------|----------------------------------------|
E|----------------------------------------|----------------------------------------|

E|----------------------------------------------|---------|----------------------------------------|
B|------12----12----------------10--------------|---------|------------------------10--------------|
G|-9----------------9---11--12------12--11------|---------|-9------9---9---11--12------12--11------|
D|------------------------------------------12--|-14------|------------------------------------12--|
A|----------------------------------------------|---------|----------------------------------------|
E|----------------------------------------------|---------|----------------------------------------|

E|----------------------------------------|----------------------------------------------|
B|------------------------10--------------|------10----10----------------10--------------|
G|-9------9---9---11--12------12--11------|-9----------------9---11--12------12--11------|
D|------------------------------------12--|------------------------------------------12--|
A|----------------------------------------|----------------------------------------------|
E|----------------------------------------|----------------------------------------------|

E|-----------------------|----------------------------------------|----------------------------------------|
B|-----------------------|------------------------10--------------|------------------------10--------------|
G|-9---------------------|-9------9---9---11--12------12--11------|-9------9---9---11--12------12--11------|
D|--------12--10--9------|------------------------------------12--|------------------------------------12--|
A|-----------------------|----------------------------------------|----------------------------------------|
E|-----------------------|----------------------------------------|----------------------------------------|

E|----------------------------------------------|-----------------------|-------------------|
B|------10----10----------------10--------------|-----------------------|-------------------|
G|-9----------------9---11--12------12--11------|-9---------------------|-9-------9----7----|
D|------------------------------------------12--|--------12--10--9------|-9-------9----7----|
A|----------------------------------------------|-----------------------|-7-------7----5----|
E|----------------------------------------------|-----------------------|-------------------|

E|------------------------|---------|----------------------------|-------------------|
B|--------8----7----7-----|---------|----------------------------|-------------------|
G|-9------9----7----7-----|-5-------|-4--------------------------|-9-------9----7----|
D|-9------9----7----7-----|-5-------|-4--------------4-----------|-9-------9----7----|
A|-7----------------------|-3-------|-2------0-------4-----------|-7-------7----5----|
E|------------------------|---------|------------3---2------0----|-------------------|

E|--------------------|---------|----------------------------|---------|-----------------------------------|
B|--------------------|---------|----------------------------|---------|-----------------------------------|
G|-9------7-----7-----|-5-------|-4--------------------------|-9-------|-----------------------------------|
D|-9------9-----9-----|-5-------|-4--------------4-----------|-9-------|-----------------------------------|
A|-7------7-----7-----|-3-------|-2------0-------4-----------|-7-------|------7-----9-----10----9-----7----|
E|--------------------|---------|------------3---2------0----|---------|-0---------------------------------|

E|---------|----------------------------|---------|------------------------|---------|
B|---------|----------------------------|---------|--------10---8----8-----|---------|
G|-5-------|-4--------------------------|-9-------|-9------9----9----9-----|-5-------|
D|-5-------|-4--------------4-----------|-9-------|-9------9----9----9-----|-5-------|
A|-3-------|-2------0-------4-----------|-7-------|-7----------------------|-3-------|
E|---------|------------3---2------0----|---------|------------------------|---------|

E|----------------------------|-7-------|-5-------|-5-------|-3------5------|-7-------|
B|----------------------------|-8-------|-7-------|-5-------|-5------7------|-8-------|
G|-4--------------------------|-9-------|-7-------|-5-------|-5------7------|-9-------|
D|-4--------------4-----------|-9-------|-7-------|-7-------|-5------7------|-9-------|
A|-2------0-------4-----------|-7-------|-5-------|-7-------|-3------5------|-7-------|
E|------------3---2------0----|---------|---------|-5-------|---------------|---------|

E|-5-------|-5-------|-3------5------|--------------------------------------------------|
B|-7-------|-5-------|-5------7------|--------------------------------------------------|
G|-7-------|-5-------|-5------7------|--------------------------------------------------|
D|-7-------|-7-------|-5------7------|------------------------7-------------------------|
A|-5-------|-7-------|-3------5------|-7----7---9---10---9---------10---9---10--9---7---|
E|---------|-5-------|---------------|--------------------------------------------------|

E|----------------------------------------|--------------------------------------------------|
B|----------------------------------------|--------------------------------------------------|
G|----------------------------------------|--------------------------------------------------|
D|----------------------------------------|------------------------7-------------------------|
A|-3----3---5---7----5----3----5----2-----|-7----7---9---10---9---------10---9---10--9---7---|
E|----------------------------------------|--------------------------------------------------|

E|----------------------------------------|--------------------------------------------------|
B|----------------------------------------|--------------------------------------------------|
G|----------------------------------------|------------------------7-------------------------|
D|----------------------------------------|-7----7---9---10---9---------10---9---10--9---7---|
A|-3----3---5---7----5----3----5----2-----|--------------------------------------------------|
E|----------------------------------------|--------------------------------------------------|

E|----------------------------------------|--------------------------------------------------|
B|----------------------------------------|--------------------------------------------------|
G|----------------------------------------|------------------------7-------------------------|
D|-3----3---5---7----5----3----5----2-----|-7----7---9---10---9---------10---9---10--9---7---|
A|----------------------------------------|--------------------------------------------------|
E|----------------------------------------|--------------------------------------------------|

E|----------------------------------------|-------------------|------------------------|
B|----------------------------------------|-------------------|--------8----7----7-----|
G|----------------------------------------|-9-------9----7----|-9------9----7----7-----|
D|-3----3---5---7----5----3----5----2-----|-9-------9----7----|-9------9----7----7-----|
A|----------------------------------------|-7-------7----5----|-7----------------------|
E|----------------------------------------|-------------------|------------------------|

E|---------|----------------------------|-------------------|------------------------|
B|---------|----------------------------|-------------------|--------10---8----8-----|
G|-5-------|-4--------------------------|-9-------9----7----|-9------9----9----9-----|
D|-5-------|-4--------------4-----------|-9-------9----7----|-9------9----9----9-----|
A|-3-------|-2------0-------4-----------|-7-------7----5----|-7----------------------|
E|---------|------------3---2------0----|-------------------|------------------------|

E|---------|----------------------------|---------|-----------------------------------|
B|---------|----------------------------|---------|-----------------------------------|
G|-5-------|-4--------------------------|-9-------|-----------------------------------|
D|-5-------|-4--------------4-----------|-9-------|-----------------------------------|
A|-3-------|-2------0-------4-----------|-7-------|------7-----9-----10----9-----7----|
E|---------|------------3---2------0----|---------|-0---------------------------------|

E|---------|----------------------------|---------|-----------------------------------|
B|---------|----------------------------|---------|-----------------------------------|
G|-5-------|-4--------------------------|-9-------|-----------------------------------|
D|-5-------|-4--------------4-----------|-9-------|------------------------7-----9----|
A|-3-------|-2------0-------4-----------|-7-------|------7-----9-----10---------------|
E|---------|------------3---2------0----|---------|-0---------------------------------|

E|---------|-----------------------|-7-------|-5-------|-5-------|-3------5------|-7-------|
B|---------|-----------------------|-8-------|-7-------|-5-------|-5------7------|-8-------|
G|-5-------|-4---------------------|-9-------|-7-------|-5-------|-5------7------|-9-------|
D|-5-------|-4--------------4------|-9-------|-7-------|-7-------|-5------7------|-9-------|
A|---------|-2------0-------4------|-7-------|-5-------|-7-------|-3------5------|-7-------|
E|---------|------------3---2------|---------|---------|-5-------|---------------|---------|

E|-5-------|-5-------|-3------5------|---------------------------------------------------|
B|-7-------|-5-------|-5------7------|---------------------------------------------------|
G|-7-------|-5-------|-5------7------|---------------------------%-------%-------%-------|
D|-7-------|-7-------|-5------7------|---------------------------%-------%-------%-------|
A|-5-------|-7-------|-3------5------|---------------------------------------------------|
E|---------|-5-------|---------------|-7----7----7---7---7---7-------7-------7-------7---|

E|---------------------------------------------------|---------------------------------------------------|
B|---------------------------------------------------|---------------------------------------------------|
G|---------------------------%-------%-------%-------|---------------------------%-------%-------%-------|
D|---------------------------%-------%-------%-------|---------------------------%-------%-------%-------|
A|---------------------------------------------------|---------------------------------------------------|
E|-7----7----7---7---7---7-------7-------7-------7---|-7----7----7---7---7---7-------7-------7-------7---|

E|---------------------------------------------------|---------------------------------------------------|
B|---------------------------------------------------|---------------------------------------------------|
G|---------------------------%-------%-------%-------|---------------------------%-------%-------%-------|
D|---------------------------%-------%-------%-------|---------------------------%-------%-------%-------|
A|---------------------------------------------------|---------------------------------------------------|
E|-7----7----7---7---7---7-------7-------7-------7---|-7----7----7---7---7---7-------7-------7-------7---|

E|---------------------------------------------------|---------------------------------------------------|
B|---------------------------------------------------|---------------------------------------------------|
G|---------------------------%-------%-------%-------|---------------------------%-------%-------%-------|
D|---------------------------%-------%-------%-------|---------------------------%-------%-------%-------|
A|---------------------------------------------------|---------------------------------------------------|
E|-7----7----7---7---7---7-------7-------7-------7---|-7----7----7---7---7---7-------7-------7-------7---|

E|---------------------------------------------------|---------------------------------------------------|
B|---------------------------------------------------|---------------------------------------------------|
G|---------------------------%-------%-------%-------|---------------------------%-------%-------%-------|
D|---------------------------%-------%-------%-------|---------------------------%-------%-------%-------|
A|---------------------------------------------------|---------------------------------------------------|
E|-7----7----7---7---7---7-------7-------7-------7---|-5----5----5---5---5---5-------5-------5-------5---|

E|---------------------------------------------------|---------------------------------------------------|
B|---------------------------------------------------|---------------------------------------------------|
G|---------------------------%-------%-------%-------|---------------------------%-------%-------%-------|
D|---------------------------%-------%-------%-------|---------------------------%-------%-------%-------|
A|---------------------------------------------------|---------------------------------------------------|
E|-5----5----5---5---5---5-------5-------5-------5---|-5----5----5---5---5---5-------5-------5-------5---|

E|---------------------------------------------------|---------------------------------------------------|
B|---------------------------------------------------|---------------------------------------------------|
G|---------------------------%-------%-------%-------|---------------------------%-------%-------%-------|
D|---------------------------%-------%-------%-------|---------------------------%-------%-------%-------|
A|---------------------------------------------------|---------------------------------------------------|
E|-5----5----5---5---5---5-------5-------5-------5---|-7----7----7---7---7---7-------7-------7-------7---|

E|---------------------------------------------------|---------------------------------------------------|
B|---------------------------------------------------|---------------------------------------------------|
G|---------------------------%-------%-------%-------|---------------------------%-------%-------%-------|
D|---------------------------%-------%-------%-------|---------------------------%-------%-------%-------|
A|---------------------------------------------------|---------------------------------------------------|
E|-7----7----7---7---7---7-------7-------7-------7---|-7----7----7---7---7---7-------7-------7-------7---|

E|---------------------------------------------------|---------------------------------------------------|
B|---------------------------------------------------|---------------------------------------------------|
G|---------------------------%-------%-------%-------|---------------------------%-------%-------%-------|
D|---------------------------%-------%-------%-------|---------------------------%-------%-------%-------|
A|---------------------------------------------------|---------------------------------------------------|
E|-7----7----7---7---7---7-------7-------7-------7---|-9----9----9---9---9---9-------9-------9-------9---|

E|---------------------------------------------------|---------------------------------------------------|
B|---------------------------------------------------|---------------------------------------------------|
G|---------------------------%-------%-------%-------|---------------------------%-------%-------%-------|
D|---------------------------%-------%-------%-------|---------------------------%-------%-------%-------|
A|---------------------------------------------------|---------------------------------------------------|
E|-9----9----9---9---9---9-------9-------9-------9---|-9----9----9---9---9---9-------9-------9-------9---|

E|---------------------------------------------------|---------------------------------------------------|
B|---------------------------------------------------|---------------------------------------------------|
G|---------------------------%-------%-------%-------|---------------------------%-------%-------%-------|
D|---------------------------%-------%-------%-------|---------------------------%-------%-------%-------|
A|---------------------------------------------------|---------------------------------------------------|
E|-9----9----9---9---9---9-------9-------9-------9---|-11---11---11--11--11--11------11------11------11--|

E|---------------------------------------------------|---------------------------------------------------|
B|---------------------------------------------------|---------------------------------------------------|
G|---------------------------%-------%-------%-------|---------------------------%-------%-------%-------|
D|---------------------------%-------%-------%-------|---------------------------%-------%-------%-------|
A|---------------------------------------------------|---------------------------------------------------|
E|-11---11---11--11--11--11------11------11------11--|-11---11---11--11--11--11------11------11------11--|

E|-------------------------------------------------|--------------------------|-------------------------|
B|-------------------------------------------------|--------------------------|-------------------------|
G|-8-----------10----------12----------14----------|--------------------------|-------------------------|
D|-----8-----------10----------12----------14------|-9------9----8------------|-9------9----8-----------|
A|---------10----------12----------14----------16--|-7-------------------9----|-7------------------10---|
E|-------------------------------------------------|---------------------7----|-------------------------|

E|---------------------------------|-------------------------|-----------------------------------------|
B|---------------------------------|-------------------------|-----------------------------------------|
G|---------------------------------|-------------------------|-----------------------------------------|
D|-8-------------------------------|-9------9----8-----------|-8---------------------------------------|
A|------10---9----6----7------9----|-7------------------10---|------10---9----7----10---9----7---------|
E|----------------------------7----|-------------------------|------------------------------------7----|

E|---------|---------|----------------|----------------|---------------------------------------|
B|---------|---------|----------------|----------------|---------------------------------------|
G|-5-------|-7-------|-%-------%------|-%-------%------|----------------7----------------------|
D|-5-------|-7-------|-%-------%------|-%-------%------|-7----9----10--------10---9----7-------|
A|-3-------|-5-------|----------------|----------------|---------------------------------------|
E|---------|---------|----------------|----------------|---------------------------------------|

E|-----------------------------------------------------|---------------------------------------------------------|
B|-----------------------------------------------------|---------------------------------------------------------|
G|----------------10-------------12-----12---14---10---|-10------------------------------------------------------|
D|-10---12---14--------14---12-------------------------|------14---12---10---------------------------------------|
A|-----------------------------------------------------|---------------------14---12---10----10---10--------10---|
E|-----------------------------------------------------|-----------------------------------------------13--------|

E|-----------------------------------|---------------------------------------|-----------------------------------------------------|
B|-----------------------------------|---------------------------------------|-----------------------------------------------------|
G|-----------------------------------|----------------7----------------------|----------------10-------------12-----12---14---10---|
D|-----------------10----------------|-7----9----10--------10---9----7-------|-10---12---14--------14---12-------------------------|
A|-13----13---13--------13-----------|---------------------------------------|-----------------------------------------------------|
E|---------------------------13------|---------------------------------------|-----------------------------------------------------|

E|---------------------------------------------------------|-----------------------------------|
B|---------------------------------------------------------|-----------------------------------|
G|-10------------------------------------------------------|-----------------------------------|
D|------14---12---10---------------------------------------|-----------------10----------------|
A|---------------------14---12---10----10---10--------10---|-13----13---13--------13-----------|
E|-----------------------------------------------13--------|---------------------------13------|

E|---------------------------------------|-----------------------------------------------------|
B|---------------------------------------|-----------------------------------------------------|
G|----------------7----------------------|----------------10-------------12-----12---14---10---|
D|-7----9----10--------10---9----7-------|-10---12---14--------14---12-------------------------|
A|---------------------------------------|-----------------------------------------------------|
E|---------------------------------------|-----------------------------------------------------|

E|---------------------------------------------------------|-----------------------------------|
B|---------------------------------------------------------|-----------------------------------|
G|-10------------------------------------------------------|-----------------------------------|
D|------14---12---10---------------------------------------|-----------------10----------------|
A|---------------------14---12---10----10---10--------10---|-13----13---13--------13-----------|
E|-----------------------------------------------13--------|---------------------------13------|

E|---------------------------------------|-----------------------------------------------------|
B|---------------------------------------|-----------------------------------------------------|
G|----------------7----------------------|----------------10-------------12-----12---14---10---|
D|-7----9----10--------10---9----7-------|-10---12---14--------14---12-------------------------|
A|---------------------------------------|-----------------------------------------------------|
E|---------------------------------------|-----------------------------------------------------|

E|---------------------------------------------------------|-----------------------------------------|
B|---------------------------------------------------------|-----------------------------------------|
G|-10------------------------------------------------------|-----------------------------------------|
D|------14---12---10---------------------------------------|-----------------10---------------12-----|
A|---------------------14---12---10----10---10--------10---|-13----13---13--------13-----------------|
E|-----------------------------------------------13--------|---------------------------13------------|

E|---------------------------------------------------|------------------------------------------------------------------|
B|---------------------------------------------------|------------------------------------------------------------------|
G|-17-------------------------------------------12---|-14--12--------------14--12----------------------------------7----|
D|--------14--12--10--------10--12--10-----10--------|---------14--12--14----------14--12--------------12---------------|
A|----------------------12---------------------------|-------------------------------------15--12-----------15----------|
E|---------------------------------------------------|---------------------------------------------15-------------------|

E|---------------------------------------------------------------------------------------------------------------------------------|
B|---------------------------------------------------------------------------------------------------------------------------------|
G|-5---0---4---0---5---0---5---0---4---0---5---0---5---0---4---0---5---0---5---0---4---0---5---0---4---0---3---0---2---0---1---0---|
D|---------------------------------------------------------------------------------------------------------------------------------|
A|---------------------------------------------------------------------------------------------------------------------------------|
E|---------------------------------------------------------------------------------------------------------------------------------|

E|------------------------------------------------|--------------|--------------------------------------------------------------------------------|
B|------------------------------------------------|--------------|-12----13--12--10--12----13--12--10--13-----13--15------12--13------10--12------|
G|------------------------------------------------|-%------%-----|----------------------------------------------------%-----------%-----------%---|
D|-----------3----5----3----5----3------3----0----|-%------%-----|----------------------------------------------------%-----------%-----------%---|
A|------5-----------------------------------------|--------------|--------------------------------------------------------------------------------|
E|-6----------------------------------------------|--------------|--------------------------------------------------------------------------------|

E|----------------------------------------------------------------------------------------------------------------------|
B|-12--13--12--10--12-10----10------------------------------------------------------------------------------------------|
G|-----------------------12------12--9--10-12-10--9-----------9---------------------------------------------------------|
D|----------------------------------------------------10--12------12--10--9-------------------9---10--12--10----12--10--|
A|----------------------------------------------------------------------------12--10--12--10----------------------------|
E|----------------------------------------------------------------------------------------------------------------------|

E|----------------------------------------------------------------------|---------------------------------------|
B|----------------------------------------------------------------------|--------------------------8----6-------|
G|----------------------------------------------------------------------|---------------------------------------|
D|-9---10------9--------------------------------------------------------|-----------3----7----5-----------------|
A|---------12------10--12--8---10------8--------------------------------|------5--------------------------------|
E|---------------------------------12------10--12--8---10--7------7-----|-6-------------------------------------|

E|--------------|--------------------------------------------------------------------------------------------------------------------|
B|--------------|-12-13-12-13-12-13-12-13-12-13-12-13-10-13-10-13-10-13-10-13-10-13-10-13-8--13-8--13-8--13-8--13-8--13-8--13-6------|
G|-%------%-----|--------------------------------------------------------------------------------------------------------------------|
D|-%------%-----|--------------------------------------------------------------------------------------------------------------------|
A|--------------|--------------------------------------------------------------------------------------------------------------------|
E|--------------|--------------------------------------------------------------------------------------------------------------------|

E|-----------------------------------------------------|-------------------------------------------------------------------------------------------------------------|
B|-5----6----8----6----5-------------------------------|--------------------------------------------------------------------------------------------------------10---|
G|--------------------------5---------------0-----7----|-5---0---4---0---5---0---5---0---4---0---5---0---5---0---4---0---5---0---5---0---4---0---4---0---4-----------|
D|-------------------------------5-----5---------------|-------------------------------------------------------------------------------------------------------------|
A|-----------------------------------------------------|-------------------------------------------------------------------------------------------------------------|
E|-----------------------------------------------------|-------------------------------------------------------------------------------------------------------------|

E|----------------------------------------------------------------------------------------------------|
B|-13--10------13--10------10-------------------------------------------------------------------------|
G|---------12----------12------12--9-------12---------------------------------------------------------|
D|-------------------------------------12------14--13--12----------12---------------------------------|
A|---------------------------------------------------------15--12------12--15--12---------------------|
E|---------------------------------------------------------------------------------15--11--10--8------|

E|---------------------------------------------------------------|---------------------------------------------------------------|
B|---------------------------------------------------------------|---------------------------------------------------------------|
G|-------------------------9------------------------------9------|-------------------------5------------------------------5------|
D|-------------------------9------------------------------9------|-------------------------5------------------------------5------|
A|-------------------------7------------------------------7------|-3---3---3---3---3---3---3------3---3---3---3---3---3---3------|
E|-0---0---0---0---0---0---0------0---0---0---0---0---0---0------|---------------------------------------------------------------|

E|---------------------------------------------------------------|-------------------------------------------------------------------|
B|---------------------------------------------------------------|-------------------------------------------------------------------|
G|---------------------------------------------------------------|-------------------------7------------------------------5-----7----|
D|-------------------------5------------------------------5------|-------------------------7------------------------------5-----7----|
A|-------------------------5------------------------------5------|-5---5---5---5---5---5---5------3---3---3---3---3---3---3-----5----|
E|-3---3---3---3---3---3---3------3---3---3---3---3---3---3------|-------------------------------------------------------------------|

E|---------------------------------------------------------------|---------------------------------------------------------------|
B|---------------------------------------------------------------|---------------------------------------------------------------|
G|-------------------------9------------------------------9------|-------------------------5------------------------------5------|
D|-------------------------9------------------------------9------|-------------------------5------------------------------5------|
A|-------------------------7------------------------------7------|-3---3---3---3---3---3---3------3---3---3---3---3---3---3------|
E|-0---0---0---0---0---0---0------0---0---0---0---0---0---0------|---------------------------------------------------------------|

E|---------------------------------------------------------------|-------------------------------------------------------------------|
B|---------------------------------------------------------------|-------------------------------------------------------------------|
G|---------------------------------------------------------------|-------------------------7------------------------------5-----7----|
D|-------------------------5------------------------------5------|-------------------------7------------------------------5-----7----|
A|-------------------------5------------------------------5------|-5---5---5---5---5---5---5------3---3---3---3---3---3---3-----5----|
E|-3---3---3---3---3---3---3------3---3---3---3---3---3---3------|-------------------------------------------------------------------|

E|---------------------------------------------------------------|---------------------------------------------------------------|
B|---------------------------------------------------------------|---------------------------------------------------------------|
G|-------------------------9------------------------------9------|-------------------------5------------------------------5------|
D|-------------------------9------------------------------9------|-------------------------5------------------------------5------|
A|-------------------------7------------------------------7------|-3---3---3---3---3---3---3------3---3---3---3---3---3---3------|
E|-0---0---0---0---0---0---0------0---0---0---0---0---0---0------|---------------------------------------------------------------|

E|---------------------------------------------------------------|-------------------------------------------------------------------|
B|---------------------------------------------------------------|-------------------------------------------------------------------|
G|---------------------------------------------------------------|-------------------------7------------------------------5-----7----|
D|-------------------------5------------------------------5------|-------------------------7------------------------------5-----7----|
A|-------------------------5------------------------------5------|-5---5---5---5---5---5---5------3---3---3---3---3---3---3-----5----|
E|-3---3---3---3---3---3---3------3---3---3---3---3---3---3------|-------------------------------------------------------------------|

E|---------|---------|---------|-------------------|---------|---------|---------|-------------------|
B|---------|---------|---------|-------------------|---------|---------|---------|-------------------|
G|-9-------|-9-------|-7-------|---------5----7----|-9-------|-9-------|-7-------|---------5----7----|
D|-9-------|-9-------|-7-------|-9-------5----7----|-9-------|-9-------|-7-------|-9-------5----7----|
A|-7-------|-7-------|-5-------|-9-------3----5----|-7-------|-7-------|-5-------|-9-------3----5----|
E|---------|---------|---------|-7-----------------|---------|---------|---------|-7-----------------|

E|---------------|---------------|---------------|---------------|---------|---------|
B|---------8-----|---------8-----|---------8-----|---------8-----|---------|---------|
G|-9-------7-----|-7-------7-----|-9-------7-----|-7-------7-----|-9-------|-9-------|
D|-9-------5-----|-7-------5-----|-9-------5-----|-7-------5-----|-9-------|-9-------|
A|-7-------------|-5-------------|-7-------------|-5-------------|-7-------|-7-------|
E|---------------|---------------|---------------|---------------|---------|---------|

E|---------|-------------------|-7-------|-5-------|-5-------|-3------5------|-7-------|
B|---------|-------------------|-8-------|-7-------|-5-------|-5------7------|-8-------|
G|-7-------|---------5----7----|-9-------|-7-------|-5-------|-5------7------|-9-------|
D|-7-------|-9-------5----7----|-9-------|-7-------|-7-------|-5------7------|-9-------|
A|-5-------|-9-------3----5----|-7-------|-5-------|-7-------|-3------5------|-7-------|
E|---------|-7-----------------|---------|---------|-5-------|---------------|---------|

E|-5-------|-5-------|-3------5------|----------------------------------------|----------------------------------------|
B|-7-------|-5-------|-5------7------|------------------------10--------------|------------------------10--------------|
G|-7-------|-5-------|-5------7------|-9------9---9---11--12------12--11------|-9------9---9---11--12------12--11------|
D|-7-------|-7-------|-5------7------|------------------------------------12--|------------------------------------12--|
A|-5-------|-7-------|-3------5------|----------------------------------------|----------------------------------------|
E|---------|-5-------|---------------|----------------------------------------|----------------------------------------|

E|----------------------------------------------|-----------------------|----------------------------------------|
B|------10----10----------------10--------------|-----------------------|------------------------10--------------|
G|-9----------------9---11--12------12--11------|-9---------------------|-9------9---9---11--12------12--11------|
D|------------------------------------------12--|--------12--10--9------|------------------------------------12--|
A|----------------------------------------------|-----------------------|----------------------------------------|
E|----------------------------------------------|-----------------------|----------------------------------------|

E|----------------------------------------|----------------------------------------------|
B|------------------------10--------------|------10----10----------------10--------------|
G|-9------9---9---11--12------12--11------|-9----------------9---11--12------12--11------|
D|------------------------------------12--|------------------------------------------12--|
A|----------------------------------------|----------------------------------------------|
E|----------------------------------------|----------------------------------------------|

E|-------------------------------|------------------------------|
B|-------------------------------|------------------------------|
G|-9-----------------------------|--------------------9------9--|
D|--------12--10--9--------------|--------------------9------9--|
A|-----------------------12--10--|-9-----10---10-9----7------7--|
E|-------------------------------|------------------------------|
Iron Maiden - Alexander the Great
Iron Maiden - Alexander the Great.gp3