Iron Maiden - Be Quick or Be Dead (2)

Iron Maiden



Title: Be quick or be dead
Album: Fear of the dark
Artist: Iron Maiden
Author: Bruce Dickinson & Janick Gers

Track 1: Guitar 1
E|---------|---------|---------|---------|---------|---------|---------|---------|---------|
B|---------|---------|---------|---------|---------|---------|---------|---------|---------|
G|-%-------|-%-------|-%-------|-%-------|-%-------|-%-------|-%-------|-%-------|-%-------|
D|-%-------|-%-------|-%-------|-%-------|-%-------|-%-------|-%-------|-%-------|-%-------|
A|---------|---------|---------|---------|---------|---------|---------|---------|---------|
E|---------|---------|---------|---------|---------|---------|---------|---------|---------|

E|---------|---------|---------|---------|---------|---------|---------|---------|---------|
B|---------|---------|---------|---------|---------|---------|---------|---------|---------|
G|-%-------|-%-------|-%-------|-%-------|-%-------|-%-------|-%-------|-%-------|-%-------|
D|-%-------|-%-------|-%-------|-%-------|-%-------|-%-------|-%-------|-%-------|-%-------|
A|---------|---------|---------|---------|---------|---------|---------|---------|---------|
E|---------|---------|---------|---------|---------|---------|---------|---------|---------|

E|---------|---------|---------|---------|---------|---------|---------|---------|---------|
B|---------|---------|---------|---------|---------|---------|---------|---------|---------|
G|-%-------|-%-------|-%-------|-%-------|-%-------|-%-------|-%-------|-%-------|-%-------|
D|-%-------|-%-------|-%-------|-%-------|-%-------|-%-------|-%-------|-%-------|-%-------|
A|---------|---------|---------|---------|---------|---------|---------|---------|---------|
E|---------|---------|---------|---------|---------|---------|---------|---------|---------|

E|---------|---------|---------|---------|---------|---------|---------|---------|---------|
B|---------|---------|---------|---------|---------|---------|---------|---------|---------|
G|-%-------|-%-------|-%-------|-%-------|-%-------|-%-------|-%-------|-%-------|-%-------|
D|-%-------|-%-------|-%-------|-%-------|-%-------|-%-------|-%-------|-%-------|-%-------|
A|---------|---------|---------|---------|---------|---------|---------|---------|---------|
E|---------|---------|---------|---------|---------|---------|---------|---------|---------|

E|---------|---------|---------|---------|---------|---------|---------|---------|---------|
B|---------|---------|---------|---------|---------|---------|---------|---------|---------|
G|-%-------|-%-------|-%-------|-%-------|-%-------|-%-------|-%-------|-%-------|-%-------|
D|-%-------|-%-------|-%-------|-%-------|-%-------|-%-------|-%-------|-%-------|-%-------|
A|---------|---------|---------|---------|---------|---------|---------|---------|---------|
E|---------|---------|---------|---------|---------|---------|---------|---------|---------|

E|---------|---------|---------|---------|---------|-----------------------------|-----------------------------|
B|---------|---------|---------|---------|---------|-------10----8---------------|-------8-----6---------------|
G|-%-------|-%-------|-%-------|-%-------|-%-------|-------------------7---------|-%-----------------7---------|
D|-%-------|-%-------|-%-------|-%-------|-%-------|-5----------------------5----|-%----------------------5----|
A|---------|---------|---------|---------|---------|-----------------------------|-----------------------------|
E|---------|---------|---------|---------|---------|-----------------------------|-----------------------------|

E|-----------------------------|-------------------------------------|-----------------------------|
B|-----------------------------|-------------------------------------|-------10----8---------------|
G|-%-----10----8-----5---------|-%-----8----8----8----7----5---------|-%-----------------7---------|
D|-%----------------------5----|-%------------------------------5----|-%----------------------5----|
A|-----------------------------|-------------------------------------|-----------------------------|
E|-----------------------------|-------------------------------------|-----------------------------|

E|-----------------------------|-----------------------------|-------------------------------------|
B|-------8-----6---------------|-----------------------------|-------------------------------------|
G|-%-----------------7---------|-%-----10----8-----5---------|-%-----8----8----8----7----5---------|
D|-%----------------------5----|-%----------------------5----|-%------------------------------5----|
A|-----------------------------|-----------------------------|-------------------------------------|
E|-----------------------------|-----------------------------|-------------------------------------|

E|-----------------------------|-----------------------------|-----------------------------|
B|-------10----8---------------|-------8-----6---------------|-----------------------------|
G|-%-----------------7---------|-%-----------------7---------|-%-----10----8-----5---------|
D|-%----------------------5----|-%----------------------5----|-%----------------------5----|
A|-----------------------------|-----------------------------|-----------------------------|
E|-----------------------------|-----------------------------|-----------------------------|

E|-------------------------------------|-----------------------------|-----------------------------|
B|-------------------------------------|-------10----8---------------|-------8-----6---------------|
G|-%-----8----8----8----7----5---------|-%-----------------7---------|-%-----------------7---------|
D|-%------------------------------5----|-%----------------------5----|-%----------------------5----|
A|-------------------------------------|-----------------------------|-----------------------------|
E|-------------------------------------|-----------------------------|-----------------------------|

E|-----------------------------|-------------------------------------|---------|---------|
B|-----------------------------|-------------------------------------|---------|---------|
G|-%-----10----8-----5---------|-%-----8----8----8----7----5---------|-%-------|-%-------|
D|-%----------------------5----|-%------------------------------5----|-%-------|-%-------|
A|-----------------------------|-------------------------------------|---------|---------|
E|-----------------------------|-------------------------------------|---------|---------|

E|---------|---------|---------|---------|---------|---------|---------|---------|---------|
B|---------|---------|---------|---------|---------|---------|---------|---------|---------|
G|-%-------|-%-------|-%-------|-%-------|-%-------|-%-------|-%-------|-%-------|-%-------|
D|-%-------|-%-------|-%-------|-%-------|-%-------|-%-------|-%-------|-%-------|-%-------|
A|---------|---------|---------|---------|---------|---------|---------|---------|---------|
E|---------|---------|---------|---------|---------|---------|---------|---------|---------|

E|---------|---------|---------|---------|---------|---------|---------|---------|---------|
B|---------|---------|---------|---------|---------|---------|---------|---------|---------|
G|-%-------|-%-------|-%-------|-%-------|-%-------|-%-------|-%-------|-%-------|-%-------|
D|-%-------|-%-------|-%-------|-%-------|-%-------|-%-------|-%-------|-%-------|-%-------|
A|---------|---------|---------|---------|---------|---------|---------|---------|---------|
E|---------|---------|---------|---------|---------|---------|---------|---------|---------|

E|---------|---------|---------|---------|---------|---------|---------|---------|---------|
B|---------|---------|---------|---------|---------|---------|---------|---------|---------|
G|-%-------|-%-------|-%-------|-%-------|-%-------|-%-------|-%-------|-%-------|-%-------|
D|-%-------|-%-------|-%-------|-%-------|-%-------|-%-------|-%-------|-%-------|-%-------|
A|---------|---------|---------|---------|---------|---------|---------|---------|---------|
E|---------|---------|---------|---------|---------|---------|---------|---------|---------|

E|---------|---------|---------|---------|---------|------------------------|---------------------------------|
B|---------|---------|---------|---------|---------|------------------------|-------8-------------------------|
G|-%-------|-%-------|-%-------|-%-------|-%-------|-%------%-----%---------|------------7----7-----8----7----|
D|-%-------|-%-------|-%-------|-%-------|-%-------|-%------%-----%----5----|-5-------------------------------|
A|---------|---------|---------|---------|---------|------------------------|---------------------------------|
E|---------|---------|---------|---------|---------|------------------------|---------------------------------|

E|-------------------------------------|---------------------------------|---------------------------------|
B|-6-----------------------------------|-------8-------------------------|-6-------------------------------|
G|------7----8----7----7-----7---------|------------7----7-----8----7----|------7----8----7----5-----------|
D|--------------------------------5----|-5-------------------------------|----------------------------5----|
A|-------------------------------------|---------------------------------|---------------------------------|
E|-------------------------------------|---------------------------------|---------------------------------|

E|---------------------------------|-------------------------------------|---------------------------------|
B|-------8-------------------------|-6-----------------------------------|-------8-------------------------|
G|------------7----7-----8----7----|------7----8----7----7-----7---------|------------7----7-----8----7----|
D|-5-------------------------------|--------------------------------5----|-5-------------------------------|
A|---------------------------------|-------------------------------------|---------------------------------|
E|---------------------------------|-------------------------------------|---------------------------------|

E|-------------------------------------|---------|---------|---------|---------|---------|
B|-6-----------------------------------|---------|---------|---------|---------|---------|
G|------7----8----7----5---------------|-%-------|-%-------|-%-------|-%-------|-%-------|
D|---------------------------8----7----|-%-------|-%-------|-%-------|-%-------|-%-------|
A|-------------------------------------|---------|---------|---------|---------|---------|
E|-------------------------------------|---------|---------|---------|---------|---------|

E|---------|---------|---------|---------|---------|---------|---------|---------|---------|
B|---------|---------|---------|---------|---------|---------|---------|---------|---------|
G|-%-------|-%-------|-%-------|-%-------|-%-------|-%-------|-%-------|-%-------|-%-------|
D|-%-------|-%-------|-%-------|-%-------|-%-------|-%-------|-%-------|-%-------|-%-------|
A|---------|---------|---------|---------|---------|---------|---------|---------|---------|
E|---------|---------|---------|---------|---------|---------|---------|---------|---------|

E|---------|---------|---------|---------|---------|---------|---------|---------|---------|
B|---------|---------|---------|---------|---------|---------|---------|---------|---------|
G|-%-------|-%-------|-%-------|-%-------|-%-------|-%-------|-%-------|-%-------|-%-------|
D|-%-------|-%-------|-%-------|-%-------|-%-------|-%-------|-%-------|-%-------|-%-------|
A|---------|---------|---------|---------|---------|---------|---------|---------|---------|
E|---------|---------|---------|---------|---------|---------|---------|---------|---------|

E|---------|---------|---------|---------|---------|---------|---------|---------|---------|
B|---------|---------|---------|---------|---------|---------|---------|---------|---------|
G|-%-------|-%-------|-%-------|-%-------|-%-------|-%-------|-%-------|-%-------|-%-------|
D|-%-------|-%-------|-%-------|-%-------|-%-------|-%-------|-%-------|-%-------|-%-------|
A|---------|---------|---------|---------|---------|---------|---------|---------|---------|
E|---------|---------|---------|---------|---------|---------|---------|---------|---------|

E|-----------------------------|-----------------------------|-----------------------------|
B|-------10----8---------------|-------8-----6---------------|-----------------------------|
G|-------------------7---------|-%-----------------7---------|-%-----10----8-----5---------|
D|-5----------------------5----|-%----------------------5----|-%----------------------5----|
A|-----------------------------|-----------------------------|-----------------------------|
E|-----------------------------|-----------------------------|-----------------------------|

E|-------------------------------------|-----------------------------|-----------------------------|
B|-------------------------------------|-------10----8---------------|-------8-----6---------------|
G|-%-----8----8----8----7----5---------|-%-----------------7---------|-%-----------------7---------|
D|-%------------------------------5----|-%----------------------5----|-%----------------------5----|
A|-------------------------------------|-----------------------------|-----------------------------|
E|-------------------------------------|-----------------------------|-----------------------------|

E|-----------------------------|-------------------------------------|-----------------------------|
B|-----------------------------|-------------------------------------|-------10----8---------------|
G|-%-----10----8-----5---------|-%-----8----8----8----7----5---------|-%-----------------7---------|
D|-%----------------------5----|-%------------------------------5----|-%----------------------5----|
A|-----------------------------|-------------------------------------|-----------------------------|
E|-----------------------------|-------------------------------------|-----------------------------|

E|-----------------------------|-----------------------------|-------------------------------------|
B|-------8-----6---------------|-----------------------------|-------------------------------------|
G|-%-----------------7---------|-%-----10----8-----5---------|-%-----8----8----8----7----5---------|
D|-%----------------------5----|-%----------------------5----|-%------------------------------5----|
A|-----------------------------|-----------------------------|-------------------------------------|
E|-----------------------------|-----------------------------|-------------------------------------|

E|-----------------------------|-----------------------------|-----------------------------|
B|-------10----8---------------|-------8-----6---------------|-----------------------------|
G|-%-----------------7---------|-%-----------------7---------|-%-----10----8-----5---------|
D|-%----------------------5----|-%----------------------5----|-%----------------------5----|
A|-----------------------------|-----------------------------|-----------------------------|
E|-----------------------------|-----------------------------|-----------------------------|

E|-------------------------------------|---------|---------|---------|---------|---------|
B|-------------------------------------|---------|---------|---------|---------|---------|
G|-%-----8----8----8----7----5---------|-%-------|-%-------|-%-------|-%-------|-%-------|
D|-%------------------------------5----|-%-------|-%-------|-%-------|-%-------|-%-------|
A|-------------------------------------|---------|---------|---------|---------|---------|
E|-------------------------------------|---------|---------|---------|---------|---------|

E|---------|---------|---------|---------|---------|---------|---------|---------|---------|
B|---------|---------|---------|---------|---------|---------|---------|---------|---------|
G|-%-------|-%-------|-%-------|-%-------|-%-------|-%-------|-%-------|-%-------|-%-------|
D|-%-------|-%-------|-%-------|-%-------|-%-------|-%-------|-%-------|-%-------|-%-------|
A|---------|---------|---------|---------|---------|---------|---------|---------|---------|
E|---------|---------|---------|---------|---------|---------|---------|---------|---------|

E|---------|---------|---------------|---------|-15---13---12---10---13---12---10--------|
B|---------|---------|-15------15----|-15------|------------------------------------13---|
G|-%-------|-%-------|---------------|---------|-----------------------------------------|
D|-%-------|-%-------|---------------|---------|-----------------------------------------|
A|---------|---------|---------------|---------|-----------------------------------------|
E|---------|---------|---------------|---------|-----------------------------------------|

E|-10------10---11---|-10---11---10-------------------------------------------|--------------------------------------------------------|
B|-------------------|----------------10---11--10--11---10--------------------|------------10---11---13---10---11--10--11--10--13---11-|
G|-------------------|----------------------------------------9---10--9---10--|-9-----12-----------------------------------------------|
D|-------------------|--------------------------------------------------------|--------------------------------------------------------|
A|-------------------|--------------------------------------------------------|--------------------------------------------------------|
E|-------------------|--------------------------------------------------------|--------------------------------------------------------|

E|------------------------------------------------------|----------------------------------------------------|
B|-10---------------------------------------------------|----------------------------------------------------|
G|------12---10---12--10--12---10---12---9----11---9----|-10---8----10---7----9----7----8----6----8----6-----|
D|------------------------------------------------------|----------------------------------------------------|
A|------------------------------------------------------|----------------------------------------------------|
E|------------------------------------------------------|----------------------------------------------------|

E|------------------13-----|-10-----17---15----18---|-18-----18----17---15---|-15-----15---17---15---13---|
B|-11-----10---10----------|------------------------|------------------------|----------------------------|
G|-------------------------|------------------------|------------------------|----------------------------|
D|-------------------------|------------------------|------------------------|----------------------------|
A|-------------------------|------------------------|------------------------|----------------------------|
E|-------------------------|------------------------|------------------------|----------------------------|

E|-15---13---15---13---12---13---13---12--------------------|-----------------------------------------------------------|
B|-----------------------------------------15---13----13-10-|-13---11---13---11---10---------------------11---10--------|
G|----------------------------------------------------------|--------------------------12---12---10--12------------12---|
D|----------------------------------------------------------|-----------------------------------------------------------|
A|----------------------------------------------------------|-----------------------------------------------------------|
E|----------------------------------------------------------|-----------------------------------------------------------|

E|-----------------------------------------15---18---15---15---|-18--15------15--18--15------15--18---15---18----|
B|-----------15---16---15--------16---18-----------------------|---------17--------------17----------------------|
G|-15---17------------------17---------------------------------|-------------------------------------------------|
D|-------------------------------------------------------------|-------------------------------------------------|
A|-------------------------------------------------------------|-------------------------------------------------|
E|-------------------------------------------------------------|-------------------------------------------------|

E|-18------|-18------|---------|---------|---------|---------|---------|---------|---------|
B|---------|---------|---------|---------|---------|---------|---------|---------|---------|
G|---------|---------|-%-------|-%-------|-%-------|-%-------|-%-------|-%-------|-%-------|
D|---------|---------|-%-------|-%-------|-%-------|-%-------|-%-------|-%-------|-%-------|
A|---------|---------|---------|---------|---------|---------|---------|---------|---------|
E|---------|---------|---------|---------|---------|---------|---------|---------|---------|

E|---------|---------|---------|---------|---------|---------|---------|-----------------------------|
B|---------|---------|---------|---------|---------|---------|---------|-------10----8---------------|
G|-%-------|-%-------|-%-------|-%-------|-%-------|-%-------|-%-------|-------------------7---------|
D|-%-------|-%-------|-%-------|-%-------|-%-------|-%-------|-%-------|-5----------------------5----|
A|---------|---------|---------|---------|---------|---------|---------|-----------------------------|
E|---------|---------|---------|---------|---------|---------|---------|-----------------------------|

E|-----------------------------|-----------------------------|-------------------------------------|
B|-------8-----6---------------|-----------------------------|-------------------------------------|
G|-%-----------------7---------|-%-----10----8-----5---------|-%-----8----8----8----7----5---------|
D|-%----------------------5----|-%----------------------5----|-%------------------------------5----|
A|-----------------------------|-----------------------------|-------------------------------------|
E|-----------------------------|-----------------------------|-------------------------------------|

E|-----------------------------|-----------------------------|-----------------------------|
B|-------10----8---------------|-------8-----6---------------|-----------------------------|
G|-%-----------------7---------|-%-----------------7---------|-%-----10----8-----5---------|
D|-%----------------------5----|-%----------------------5----|-%----------------------5----|
A|-----------------------------|-----------------------------|-----------------------------|
E|-----------------------------|-----------------------------|-----------------------------|

E|-------------------------------------|---------|
B|-------------------------------------|---------|
G|-%-----8----8----8----7----5---------|-%-------|
D|-%------------------------------5----|-%-------|
A|-------------------------------------|---------|
E|-------------------------------------|---------|
Iron Maiden - Be Quick or Be Dead (2)
Iron Maiden - Be Quick or Be Dead (2).gp3