Iron Maiden - Blood Brothers

Iron Maiden



Title: Blood Brothers
Album: Brave new world
Artist: Iron Maiden
Author: Steve Harris

Track 1: Guitare 1
E|----------------|----------------|----------------|----------------|------------------8------7---------|
B|----------------|----------------|----------------|----------------|------------------------------10---|
G|-%-------%------|-%-------%------|-%-------%------|-%-------%------|-9------7----9---------------------|
D|-%-------%------|-%-------%------|-%-------%------|-%-------%------|-----------------------------------|
A|----------------|----------------|----------------|----------------|-----------------------------------|
E|----------------|----------------|----------------|----------------|-----------------------------------|

E|-7----------------------------------|------------------8------7---------|-7----------------------------------|
B|--------10---8----10----8-----7-----|------------------------------10---|--------10---8----10----8-----7-----|
G|------------------------------------|-9------7----9---------------------|------------------------------------|
D|------------------------------------|-----------------------------------|------------------------------------|
A|------------------------------------|-----------------------------------|------------------------------------|
E|------------------------------------|-----------------------------------|------------------------------------|

E|------------------8------7---------|-7----------------------------------|------------------8------7---------|
B|------------------------------10---|--------10---8----10----8-----7-----|------------------------------10---|
G|-9------7----9---------------------|------------------------------------|-9------7----9---------------------|
D|-----------------------------------|------------------------------------|-----------------------------------|
A|-----------------------------------|------------------------------------|-----------------------------------|
E|-----------------------------------|------------------------------------|-----------------------------------|

E|-7----------------------------------|-----------------------------------------------------|
B|--------10---8----10----8-----7-----|-----------------------------------------------------|
G|------------------------------------|-----------------------------------------------------|
D|------------------------------------|------9---------9------------------------------------|
A|------------------------------------|-7---------7---------7----------5---------5----------|
E|------------------------------------|---------------------------3---------3---------3-----|

E|---------------------------------------------|-----------------------------------------------------|
B|---------------------------------------------|-----------------------------------------------------|
G|---------------------------------------------|-----------------------------------------------------|
D|------5---------5----------------------------|------9---------9------------------------------------|
A|-3---------3---------3-----5-----5-----5-----|-7---------7---------7----------5---------5----------|
E|---------------------------------------------|---------------------------3---------3---------3-----|

E|-----------------------------------------------------|-----------------------------------------------------|
B|-----------------------------------------------------|-----------------------------------------------------|
G|-----------------------------------------------------|-----------------------------------------------------|
D|------5---------5---------------7---------7----------|------9---------9------------------------------------|
A|-3---------3---------3-----5---------5---------5-----|-7---------7---------7----------5---------5----------|
E|-----------------------------------------------------|---------------------------3---------3---------3-----|

E|---------------------------------------------|-----------------------------------------------------|
B|---------------------------------------------|-----------------------------------------------------|
G|---------------------------------------------|-----------------------------------------------------|
D|------5---------5----------------------------|------9---------9------------------------------------|
A|-3---------3---------3-----5-----5-----5-----|-7---------7---------7----------5---------5----------|
E|---------------------------------------------|---------------------------3---------3---------3-----|

E|-----------------------------------------------------|-----------------------------------------------------|
B|-----------------------------------------------------|-----------------------------------------------------|
G|-----------------------------------------------------|-----------%-----------------------------------------|
D|------5---------5---------------7---------7----------|-----------%-----------------------------------------|
A|-3---------3---------3-----5---------5---------5-----|-2----2---------2----2----2----5----5----5-----5-----|
E|-----------------------------------------------------|-0----0---------0----0----0----3----3----3-----3-----|

E|-----------------------------------------------------|-----------------------------------------------------|
B|-----------------------------------------------------|-----------------------------------------------------|
G|-----------%-----------------------------------------|-----------%-----------------------------------------|
D|-5----5----%----5----5----5----7----7----7-----7-----|-----------%-----------------------------------------|
A|-3----3---------3----3----3----5----5----5-----5-----|-2----2---------2----2----2----5----5----5-----5-----|
E|-----------------------------------------------------|-0----0---------0----0----0----3----3----3-----3-----|

E|-----------------------------------------------------|-----------------------------------------------------|
B|-----------------------------------------------------|-----------------------------------------------------|
G|-----------%-----------------------------------------|-----------%-----------------------------------------|
D|-5----5----%----5----5----5----7----7----7-----7-----|-----------%-----------------------------------------|
A|-3----3---------3----3----3----5----5----5-----5-----|-2----2---------2----2----2----5----5----5-----5-----|
E|-----------------------------------------------------|-0----0---------0----0----0----3----3----3-----3-----|

E|-----------------------------------------------------|-----------------------------------------------------|
B|-----------------------------------------------------|-----------------------------------------------------|
G|-----------%-----------------------------------------|-----------%-----------------------------------------|
D|-5----5----%----5----5----5----7----7----7-----7-----|-----------%-----------------------------------------|
A|-3----3---------3----3----3----5----5----5-----5-----|-2----2---------2----2----2----5----5----5-----5-----|
E|-----------------------------------------------------|-0----0---------0----0----0----3----3----3-----3-----|

E|---------------------------------------|-----------------|-----------------|-----------------|
B|---------------------------------------|-----------------|-----------------|-----------------|
G|-----------%---------------------------|---------5-------|---------7-------|---------5-------|
D|-5----5----%----5----5----5----7-------|-2-------5-------|-5-------7-------|-2-------5-------|
A|-3----3---------3----3----3----5-------|-2-------3-------|-5-------5-------|-2-------3-------|
E|---------------------------------------|-0---------------|-3---------------|-0---------------|

E|-----------------|-----------------|-----------------|-----------------|----------------------|
B|-----------------|-----------------|-----------------|-----------------|----------------------|
G|---------7-------|---------5-------|---------7-------|---------5-------|---------7-----7------|
D|-5-------7-------|-2-------5-------|-5-------7-------|-2-------5-------|-5-------7-----7------|
A|-5-------5-------|-2-------3-------|-5-------5-------|-2-------3-------|-5-------5-----5------|
E|-3---------------|-0---------------|-3---------------|-0---------------|-3--------------------|

E|------------------8------7---------|-7----------------------------------|------------------8------7---------|
B|------------------------------10---|--------10---8----10----8-----7-----|------------------------------10---|
G|-9------7----9---------------------|------------------------------------|-9------7----9---------------------|
D|-----------------------------------|------------------------------------|-----------------------------------|
A|-----------------------------------|------------------------------------|-----------------------------------|
E|-----------------------------------|------------------------------------|-----------------------------------|

E|-7----------------------------------|------------------8------7---------|-7----------------------------------|
B|--------10---8----10----8-----7-----|------------------------------10---|--------10---8----10----8-----7-----|
G|------------------------------------|-9------7----9---------------------|------------------------------------|
D|------------------------------------|-----------------------------------|------------------------------------|
A|------------------------------------|-----------------------------------|------------------------------------|
E|------------------------------------|-----------------------------------|------------------------------------|

E|------------------8------7---------|-7----------------------------------|-------------------------------------------------------------|
B|------------------------------10---|--------10---8----10----8-----7-----|-------------------------------------------------------------|
G|-9------7----9---------------------|------------------------------------|-----------%-----------------------------%-------------------|
D|-----------------------------------|------------------------------------|-----------%-----------------------------%-------------------|
A|-----------------------------------|------------------------------------|-2----2---------2----2----2----5----5---------5----5----5----|
E|-----------------------------------|------------------------------------|-0----0---------0----0----0----3----3---------3----3----3----|

E|-------------------------------------------------------------|-------------------------------------------------------------|
B|-------------------------------------------------------------|-------------------------------------------------------------|
G|-----------%-----------------------------%-------------------|-----------%-----------------------------%-------------------|
D|-5----5----%----5----5----5----7----7----%----7----7----7----|-----------%-----------------------------%-------------------|
A|-3----3---------3----3----3----5----5---------5----5----5----|-2----2---------2----2----2----5----5---------5----5----5----|
E|-------------------------------------------------------------|-0----0---------0----0----0----3----3---------3----3----3----|

E|---------------------------------------|-------------------------------------------------------------|
B|---------------------------------------|-------------------------------------------------------------|
G|-----------%---------------------------|-----------%-----------------------------%-------------------|
D|-7----7----%----7----7----7----7-------|-----------%-----------------------------%-------------------|
A|-5----5---------5----5----5----5-------|-2----2---------2----2----2----5----5---------5----5----5----|
E|---------------------------------------|-0----0---------0----0----0----3----3---------3----3----3----|

E|-------------------------------------------------------------|-------------------------------------------------------------|
B|-------------------------------------------------------------|-------------------------------------------------------------|
G|-----------%-----------------------------%-------------------|-----------%-----------------------------%-------------------|
D|-5----5----%----5----5----5----7----7----%----7----7----7----|-----------%-----------------------------%-------------------|
A|-3----3---------3----3----3----5----5---------5----5----5----|-2----2---------2----2----2----5----5---------5----5----5----|
E|-------------------------------------------------------------|-0----0---------0----0----0----3----3---------3----3----3----|

E|---------------------------------------|-------------------------------------------------------------|
B|---------------------------------------|-------------------------------------------------------------|
G|-----------%---------------------------|-----------%-----------------------------%-------------------|
D|-7----7----%----7----7----7----7-------|-----------%-----------------------------%-------------------|
A|-5----5---------5----5----5----5-------|-2----2---------2----2----2----5----5---------5----5----5----|
E|---------------------------------------|-0----0---------0----0----0----3----3---------3----3----3----|

E|-------------------------------------------------------------|-------------------------------------------------------------|
B|-------------------------------------------------------------|-------------------------------------------------------------|
G|-----------%-----------------------------%-------------------|-----------%-----------------------------%-------------------|
D|-5----5----%----5----5----5----7----7----%----7----7----7----|-----------%-----------------------------%-------------------|
A|-3----3---------3----3----3----5----5---------5----5----5----|-2----2---------2----2----2----5----5---------5----5----5----|
E|-------------------------------------------------------------|-0----0---------0----0----0----3----3---------3----3----3----|

E|---------------------------------------|-------------------------------------------------------------|
B|---------------------------------------|-------------------------------------------------------------|
G|-----------%---------------------------|-----------%-----------------------------%-------------------|
D|-7----7----%----7----7----7----7-------|-----------%-----------------------------%-------------------|
A|-5----5---------5----5----5----5-------|-2----2---------2----2----2----5----5---------5----5----5----|
E|---------------------------------------|-0----0---------0----0----0----3----3---------3----3----3----|

E|-------------------------------------------------------------|-------------------------------------------------------------|
B|-------------------------------------------------------------|-------------------------------------------------------------|
G|-----------%-----------------------------%-------------------|-----------%-----------------------------%-------------------|
D|-5----5----%----5----5----5----7----7----%----7----7----7----|-----------%-----------------------------%-------------------|
A|-3----3---------3----3----3----5----5---------5----5----5----|-2----2---------2----2----2----5----5---------5----5----5----|
E|-------------------------------------------------------------|-0----0---------0----0----0----3----3---------3----3----3----|

E|---------------------------------------|-----------------|-----------------|-----------------|
B|---------------------------------------|-----------------|-----------------|-----------------|
G|-----------%---------------------------|---------5-------|---------7-------|---------5-------|
D|-7----7----%----7----7----7----7-------|-2-------5-------|-5-------7-------|-2-------5-------|
A|-5----5---------5----5----5----5-------|-2-------3-------|-5-------5-------|-2-------3-------|
E|---------------------------------------|-0---------------|-3---------------|-0---------------|

E|-----------------|-----------------|-----------------|-----------------|----------------------|
B|-----------------|-----------------|-----------------|-----------------|----------------------|
G|---------7-------|---------5-------|---------7-------|---------5-------|---------7-----7------|
D|-5-------7-------|-2-------5-------|-5-------7-------|-2-------5-------|-5-------7-----7------|
A|-5-------5-------|-2-------3-------|-5-------5-------|-2-------3-------|-5-------5-----5------|
E|-3---------------|-0---------------|-3---------------|-0---------------|-3--------------------|

E|------------------8------7---------|-7----------------------------------|------------------8------7---------|
B|------------------------------10---|--------10---8----10----8-----7-----|------------------------------10---|
G|-9------7----9---------------------|------------------------------------|-9------7----9---------------------|
D|-----------------------------------|------------------------------------|-----------------------------------|
A|-----------------------------------|------------------------------------|-----------------------------------|
E|-----------------------------------|------------------------------------|-----------------------------------|

E|-7----------------------------------|------------------8------7---------|-7----------------------------------|
B|--------10---8----10----8-----7-----|------------------------------10---|--------10---8----10----8-----7-----|
G|------------------------------------|-9------7----9---------------------|------------------------------------|
D|------------------------------------|-----------------------------------|------------------------------------|
A|------------------------------------|-----------------------------------|------------------------------------|
E|------------------------------------|-----------------------------------|------------------------------------|

E|------------------8------7---------|-7----------------------------------|---------------------------------------------------------|
B|------------------------------10---|--------10---8----10----8-----7-----|---------------------------------------------------------|
G|-9------7----9---------------------|------------------------------------|-----------%---------%-----------------------------------|
D|-----------------------------------|------------------------------------|-----------%---------%-----------------------------------|
A|-----------------------------------|------------------------------------|-2----2---------2---------2----5----5----5----5----5-----|
E|-----------------------------------|------------------------------------|-0----0---------0---------0----3----3----3----3----3-----|

E|---------------------------------------------------------|---------------------------------------------------------|
B|---------------------------------------------------------|---------------------------------------------------------|
G|-----------%---------%-----------------------------------|-----------%---------%-----------------------------------|
D|-5----5----%----5----%----5----7----7----7-----7----7----|-----------%---------%-----------------------------------|
A|-3----3---------3---------3----5----5----5-----5----5----|-2----2---------2---------2----5----5----5----5----5-----|
E|---------------------------------------------------------|-0----0---------0---------0----3----3----3----3----3-----|

E|---------------------------------------------------------|---------------------------------------------------------|
B|---------------------------------------------------------|---------------------------------------------------------|
G|-----------%---------%-----------------------------------|-----------%---------%-----------------------------------|
D|-5----5----%----5----%----5----7----7----7-----7----7----|-----------%---------%-----------------------------------|
A|-3----3---------3---------3----5----5----5-----5----5----|-2----2---------2---------2----5----5----5----5----5-----|
E|---------------------------------------------------------|-0----0---------0---------0----3----3----3----3----3-----|

E|---------------------------------------------------------|---------------------------------------------------------|
B|---------------------------------------------------------|---------------------------------------------------------|
G|-----------%---------%-----------------------------------|-----------%---------%-----------------------------------|
D|-5----5----%----5----%----5----7----7----7-----7----7----|-----------%---------%-----------------------------------|
A|-3----3---------3---------3----5----5----5-----5----5----|-2----2---------2---------2----5----5----5----5----5-----|
E|---------------------------------------------------------|-0----0---------0---------0----3----3----3----3----3-----|

E|---------------------------------------------------------|---------------------------|
B|---------------------------------------------------------|---------------------------|
G|-----------%---------%-----------------------------------|-------4-----2-----4-------|
D|-5----5----%----5----%----5----7----7----7-----7----7----|-2-------------------------|
A|-3----3---------3---------3----5----5----5-----5----5----|---------------------------|
E|---------------------------------------------------------|---------------------------|

E|--------------------------------|---------------------------|--------------------------------|
B|--------------------------------|---------------------------|--------------------------------|
G|-4------5-----4------2----------|-------4-----2-----4-------|-4------5-----4------2----------|
D|--------------------------5-----|-2-------------------------|--------------------------5-----|
A|--------------------------------|---------------------------|--------------------------------|
E|--------------------------------|---------------------------|--------------------------------|

E|---------------------------|--------------------------------|---------------------------|
B|---------------------------|--------------------------------|---------------------------|
G|-------4-----2-----4-------|-4------5-----4------2----------|-------4-----2-----4-------|
D|-2-------------------------|--------------------------5-----|-2-------------------------|
A|---------------------------|--------------------------------|---------------------------|
E|---------------------------|--------------------------------|---------------------------|

E|--------------------------------|----------------|-------------------------------------|
B|--------------------------------|----------------|-------------------------------------|
G|-4------5-----4------2----------|---------%------|-%-----------------%-----------------|
D|--------------------------5-----|-2-------%------|-%-----2-----2-----%-----2-----2-----|
A|--------------------------------|----------------|-------------------------------------|
E|--------------------------------|----------------|-------------------------------------|

E|-------------------------------------------------------------|---------------------------------------------------------|
B|-------------------------------------------------------------|-----------10--------10--------8---------8---------8-----|
G|-----------9---------9-------------------9---------9---------|-9----9---------9---------9---------9---------9----------|
D|-9----9---------9---------9----9----9---------9---------9----|---------------------------------------------------------|
A|-------------------------------------------------------------|---------------------------------------------------------|
E|-------------------------------------------------------------|---------------------------------------------------------|

E|-------------------------------------------------------------|-------------------------------------------------------------|
B|-------------------------------------------------------------|-------------------------------------------------------------|
G|-5---------5---------5---------7---------7---------7----5----|-5---------5---------5---------7---------7---------7----5----|
D|------5---------5---------5---------7---------7--------------|------5---------5---------5---------7---------7--------------|
A|-------------------------------------------------------------|-------------------------------------------------------------|
E|-------------------------------------------------------------|-------------------------------------------------------------|

E|-------------------------------------------------------------|-------------------------------------------------------------|
B|-------------------------------------------------------------|-------------------------------------------------------------|
G|-----------9---------9-------------------9---------9---------|-----------9---------9-------------------9---------9---------|
D|-9----9---------9---------9----9----9---------9---------9----|-9----9---------9---------9----9----9---------9---------9----|
A|-------------------------------------------------------------|-------------------------------------------------------------|
E|-------------------------------------------------------------|-------------------------------------------------------------|

E|----------------|----------------|----------------|----------------|----------------|
B|----------------|----------------|----------------|----------------|----------------|
G|-%-------%------|-%-------%------|-%-------%------|-%-------%------|-%-------%------|
D|-%-------%------|-%-------%------|-%-------%------|-%-------%------|-%-------%------|
A|----------------|----------------|----------------|----------------|----------------|
E|----------------|----------------|----------------|----------------|----------------|

E|----------------|----------------|----------------|----------------|----------------|
B|----------------|----------------|----------------|----------------|----------------|
G|-%-------%------|-%-------%------|-%-------%------|-%-------%------|-%-------%------|
D|-%-------%------|-%-------%------|-%-------%------|-%-------%------|-%-------%------|
A|----------------|----------------|----------------|----------------|----------------|
E|----------------|----------------|----------------|----------------|----------------|

E|----------------|----------------|----------------|----------------|----------------|
B|----------------|----------------|----------------|----------------|----------------|
G|-%-------%------|-%-------%------|-%-------%------|-%-------%------|-%-------%------|
D|-%-------%------|-%-------%------|-%-------%------|-%-------%------|-%-------%------|
A|----------------|----------------|----------------|----------------|----------------|
E|----------------|----------------|----------------|----------------|----------------|

E|----------------|----------------|----------------|----------------|----------------|
B|----------------|----------------|----------------|----------------|----------------|
G|-%-------%------|-%-------%------|-%-------%------|-%-------%------|-%-------%------|
D|-%-------%------|-%-------%------|-%-------%------|-%-------%------|-%-------%------|
A|----------------|----------------|----------------|----------------|----------------|
E|----------------|----------------|----------------|----------------|----------------|

E|----------------|----------------|----------------|----------------|----------------|
B|----------------|----------------|----------------|----------------|----------------|
G|-%-------%------|-%-------%------|-%-------%------|-%-------%------|-%-------%------|
D|-%-------%------|-%-------%------|-%-------%------|-%-------%------|-%-------%------|
A|----------------|----------------|----------------|----------------|----------------|
E|----------------|----------------|----------------|----------------|----------------|

E|----------------|----------------|----------------|----------------|----------------|
B|----------------|----------------|----------------|----------------|----------------|
G|-%-------%------|-%-------%------|-%-------%------|-%-------%------|-%-------%------|
D|-%-------%------|-%-------%------|-%-------%------|-%-------%------|-%-------%------|
A|----------------|----------------|----------------|----------------|----------------|
E|----------------|----------------|----------------|----------------|----------------|

E|----------------|----------------|----------------|----------------|----------------|
B|----------------|----------------|----------------|----------------|----------------|
G|-%-------%------|-%-------%------|-%-------%------|-%-------%------|-%-------%------|
D|-%-------%------|-%-------%------|-%-------%------|-%-------%------|-%-------%------|
A|----------------|----------------|----------------|----------------|----------------|
E|----------------|----------------|----------------|----------------|----------------|

E|----------------|----------------|----------------|----------------|----------------|
B|----------------|----------------|----------------|----------------|----------------|
G|-%-------%------|-%-------%------|-%-------%------|-%-------%------|-%-------%------|
D|-%-------%------|-%-------%------|-%-------%------|-%-------%------|-%-------%------|
A|----------------|----------------|----------------|----------------|----------------|
E|----------------|----------------|----------------|----------------|----------------|

E|----------------|-----------------|-----------------|-----------------|---------|
B|----------------|-----------------|-----------------|-----------------|---------|
G|-%-------%------|-----------------|-----------------|-----------------|---------|
D|-%-------%------|-----------------|-----------------|-5-------2-------|---------|
A|----------------|-2-------2-------|-2-------2-------|-3-------0-------|-2-------|
E|----------------|-0-------0-------|-0-------0-------|-----------------|-0-------|

E|-----------------|---------|-----------------|-----------------|-----------------|
B|-----------------|---------|-----------------|-----------------|-----------------|
G|-----------------|---------|-----------------|-----------------|-----------------|
D|-5-------2-------|-7-------|-5-------7-------|-5-------7-------|-5-------2-------|
A|-3-------0-------|-5-------|-3-------5-------|-3-------5-------|-3-------0-------|
E|-----------------|---------|-----------------|-----------------|-----------------|

E|-----------------|-----------------|---------|-----------------|---------|---------|
B|-----------------|-----------------|---------|-----------------|---------|---------|
G|-----------------|-----------------|---------|-----------------|---------|---------|
D|-2-------2-------|-5-------2-------|-7-------|-5-------2-------|---------|---------|
A|-0-------0-------|-3-------0-------|-5-------|-3-------0-------|-2-------|-2-------|
E|-----------------|-----------------|---------|-----------------|-0-------|-0-------|

E|-----------------|-----------------|-----------------|-----------------|-----------------|
B|-----------------|-----------------|-----------------|-----------------|-----------------|
G|---------5-------|---------7-------|---------5-------|---------7-------|---------5-------|
D|-2-------5-------|-5-------7-------|-2-------5-------|-5-------7-------|-2-------5-------|
A|-2-------3-------|-5-------5-------|-2-------3-------|-5-------5-------|-2-------3-------|
E|-0---------------|-3---------------|-0---------------|-3---------------|-0---------------|

E|-----------------|-----------------|----------------------|-----------------|-----------------|
B|-----------------|-----------------|----------------------|-----------------|-----------------|
G|---------7-------|---------5-------|---------7-----7------|---------5-------|---------7-------|
D|-5-------7-------|-2-------5-------|-5-------7-----7------|-2-------5-------|-5-------7-------|
A|-5-------5-------|-2-------3-------|-5-------5-----5------|-2-------3-------|-5-------5-------|
E|-3---------------|-0---------------|-3--------------------|-0---------------|-3---------------|

E|-----------------|-----------------|-----------------|-----------------|-----------------|
B|-----------------|-----------------|-----------------|-----------------|-----------------|
G|---------5-------|---------7-------|---------5-------|---------7-------|---------5-------|
D|-2-------5-------|-5-------7-------|-2-------5-------|-5-------7-------|-2-------5-------|
A|-2-------3-------|-5-------5-------|-2-------3-------|-5-------5-------|-2-------3-------|
E|-0---------------|-3---------------|-0---------------|-3---------------|-0---------------|

E|----------------------|------------------8------7---------|-7----------------------------------|
B|----------------------|------------------------------10---|--------10---8----10----8-----7-----|
G|---------7-----%------|-9------7----9---------------------|------------------------------------|
D|-5-------7-----%------|-----------------------------------|------------------------------------|
A|-5-------5------------|-----------------------------------|------------------------------------|
E|-3--------------------|-----------------------------------|------------------------------------|

E|------------------8------7---------|-7----------------------------------|------------------8------7---------|
B|------------------------------10---|--------10---8----10----8-----7-----|------------------------------10---|
G|-9------7----9---------------------|------------------------------------|-9------7----9---------------------|
D|-----------------------------------|------------------------------------|-----------------------------------|
A|-----------------------------------|------------------------------------|-----------------------------------|
E|-----------------------------------|------------------------------------|-----------------------------------|

E|-7----------------------------------|------------------8------7---------|-7----------------------------------|
B|--------10---8----10----8-----7-----|------------------------------10---|--------10---8----10----8-----7-----|
G|------------------------------------|-9------7----9---------------------|------------------------------------|
D|------------------------------------|-----------------------------------|------------------------------------|
A|------------------------------------|-----------------------------------|------------------------------------|
E|------------------------------------|-----------------------------------|------------------------------------|

E|-----------------|
B|-----------------|
G|-9-------9-------|
D|-----------------|
A|-----------------|
E|-----------------|
Iron Maiden - Blood Brothers
Iron Maiden - Blood Brothers.gp3