Iron Maiden - Blood Brothers (2)

Iron Maiden



Title: Blood Brothers
Album: Brave New World
Artist: Iron Maiden
Author: Steve Harris

Track 1: Guitar I
E|----------------|----------------|----------------|----------------|----------------|
B|----------------|----------------|----------------|----------------|----------------|
G|-%-------%------|-%-------%------|-%-------%------|-%-------%------|-%-------%------|
D|-%-------%------|-%-------%------|-%-------%------|-%-------%------|-%-------%------|
A|----------------|----------------|----------------|----------------|----------------|
E|----------------|----------------|----------------|----------------|----------------|

E|----------------|----------------|----------------|------------------8------7---------|
B|----------------|----------------|----------------|------------------------------10---|
G|-%-------%------|-%-------%------|-%-------%------|-9------7----9---------------------|
D|-%-------%------|-%-------%------|-%-------%------|-----------------------------------|
A|----------------|----------------|----------------|-----------------------------------|
E|----------------|----------------|----------------|-----------------------------------|

E|-7----------------------------------|------------------8------7---------|-7----------------------------------|
B|--------10---8----10----8-----7-----|------------------------------10---|--------10---8----7-----8-----7-----|
G|------------------------------------|-9------7----9---------------------|------------------------------------|
D|------------------------------------|-----------------------------------|------------------------------------|
A|------------------------------------|-----------------------------------|------------------------------------|
E|------------------------------------|-----------------------------------|------------------------------------|

E|------------------8------7---------|-7----------------------------------|------------------8------7---------|
B|------------------------------10---|--------10---8----10----8-----7-----|------------------------------10---|
G|-9------7----9---------------------|------------------------------------|-9------7----9---------------------|
D|-----------------------------------|------------------------------------|-----------------------------------|
A|-----------------------------------|------------------------------------|-----------------------------------|
E|-----------------------------------|------------------------------------|-----------------------------------|

E|-7----------------------------------|-----------------------------------------------------|
B|--------10---8----7-----8-----7-----|-----------------------------------------------------|
G|------------------------------------|-----------------------------------------------------|
D|------------------------------------|------9---------9------------------------------------|
A|------------------------------------|-7---------7---------7----------5---------5----------|
E|------------------------------------|---------------------------3---------3---------3-----|

E|---------------------------------------------|-----------------------------------------------------|
B|---------------------------------------------|-----------------------------------------------------|
G|---------------------------------------------|-----------------------------------------------------|
D|------5---------5----------------------------|------9---------9------------------------------------|
A|-3---------3---------3-----5-----5-----5-----|-7---------7---------7----------5---------5----------|
E|---------------------------------------------|---------------------------3---------3---------3-----|

E|----------------------------------------|-----------------------------------------------------|
B|---------------------------3------3-----|-----------------------------------------------------|
G|---------------------------2------2-----|-----------------------------------------------------|
D|------5---------5----------0------0-----|------9---------9------------------------------------|
A|-3---------3---------3------------------|-7---------7---------7----------5---------5----------|
E|----------------------------------------|---------------------------3---------3---------3-----|

E|---------------------------------------------|-----------------------------------------------------|
B|---------------------------------------------|-----------------------------------------------------|
G|---------------------------------------------|-----------------------------------------------------|
D|------5---------5----------------------------|------9---------9------------------------------------|
A|-3---------3---------3-----5-----5-----5-----|-7---------7---------7----------5---------5----------|
E|---------------------------------------------|---------------------------3---------3---------3-----|

E|----------------------------------------|-----------------------------------------------------|
B|---------------------------3------3-----|-----------------------------------------------------|
G|---------------------------2------2-----|-----------%-----------------------------------------|
D|------5---------5----------0------0-----|-----------%-----------------------------------------|
A|-3---------3---------3------------------|-2----2---------2----2----2----5----5----5-----5-----|
E|----------------------------------------|-0----0---------0----0----0----3----3----3-----3-----|

E|-----------------------------------------------------|-----------------------------------------------------|
B|-----------------------------------------------------|-----------------------------------------------------|
G|-----------%-----------------------------------------|-----------%-----------------------------------------|
D|-5----5----%----5----5----5----7----7----7-----7-----|-----------%-----------------------------------------|
A|-3----3---------3----3----3----5----5----5-----5-----|-2----2---------2----2----2----5----5----5-----5-----|
E|-----------------------------------------------------|-0----0---------0----0----0----3----3----3-----3-----|

E|-----------------------------------------------------|-----------------------------------------------------|
B|-----------------------------------------------------|-----------------------------------------------------|
G|-----------%-----------------------------------------|-----------%-----------------------------------------|
D|-5----5----%----5----5----5----7----7----7-----7-----|-----------%-----------------------------------------|
A|-3----3---------3----3----3----5----5----5-----5-----|-2----2---------2----2----2----5----5----5-----5-----|
E|-----------------------------------------------------|-0----0---------0----0----0----3----3----3-----3-----|

E|-----------------------------------------------------|-----------------------------------------------------|
B|-----------------------------------------------------|-----------------------------------------------------|
G|-----------%-----------------------------------------|-----------%-----------------------------------------|
D|-5----5----%----5----5----5----7----7----7-----7-----|-----------%-----------------------------------------|
A|-3----3---------3----3----3----5----5----5-----5-----|-2----2---------2----2----2----5----5----5-----5-----|
E|-----------------------------------------------------|-0----0---------0----0----0----3----3----3-----3-----|

E|---------------------------------------|-----------------|-----------------|-----------------|
B|---------------------------------------|-----------------|-----------------|-----------------|
G|-----------%---------------------------|---------5-------|---------7-------|---------5-------|
D|-5----5----%----5----5----5----7-------|-2-------5-------|-5-------7-------|-2-------5-------|
A|-3----3---------3----3----3----5-------|-2-------3-------|-5-------5-------|-2-------3-------|
E|---------------------------------------|-0---------------|-3---------------|-0---------------|

E|----------------------|-----------------|-----------------|-----------------|----------------------|
B|----------------------|-----------------|-----------------|-----------------|----------------------|
G|---------7-----7------|---------5-------|---------7-------|---------5-------|---------7-----7------|
D|-5-------7-----7------|-2-------5-------|-5-------7-------|-2-------5-------|-5-------7-----7------|
A|-5-------5-----5------|-2-------3-------|-5-------5-------|-2-------3-------|-5-------5-----5------|
E|-3--------------------|-0---------------|-3---------------|-0---------------|-3--------------------|

E|-----------------------------------------------------|-----------------------------------------------------|
B|-----------------------------------------------------|-----------------------------------------------------|
G|-----------%-----------------------------------------|-----------%-----------------------------------------|
D|-----------%-----------------------------------------|-5----5----%----5----5----5----7----7----7-----7-----|
A|-2----2---------2----2----2----5----5----5-----5-----|-3----3---------3----3----3----5----5----5-----5-----|
E|-0----0---------0----0----0----3----3----3-----3-----|-----------------------------------------------------|

E|-----------------------------------------------------|-----------------------------------------------------|
B|-----------------------------------------------------|-----------------------------------------------------|
G|-----------%-----------------------------------------|-----------%-----------------------------------------|
D|-----------%-----------------------------------------|-5----5----%----5----5----5----7----7----7-----7-----|
A|-2----2---------2----2----2----5----5----5-----5-----|-3----3---------3----3----3----5----5----5-----5-----|
E|-0----0---------0----0----0----3----3----3-----3-----|-----------------------------------------------------|

E|-----------------------------------------------------|-----------------------------------------------------|
B|-----------------------------------------------------|-----------------------------------------------------|
G|-----------%-----------------------------------------|-----------%-----------------------------------------|
D|-----------%-----------------------------------------|-5----5----%----5----5----5----7----7----7-----7-----|
A|-2----2---------2----2----2----5----5----5-----5-----|-3----3---------3----3----3----5----5----5-----5-----|
E|-0----0---------0----0----0----3----3----3-----3-----|-----------------------------------------------------|

E|-----------------------------------------------------|---------------------------------------|
B|-----------------------------------------------------|---------------------------------------|
G|-----------%-----------------------------------------|-----------%---------------------------|
D|-----------%-----------------------------------------|-5----5----%----5----5----5----7-------|
A|-2----2---------2----2----2----5----5----5-----5-----|-3----3---------3----3----3----5-------|
E|-0----0---------0----0----0----3----3----3-----3-----|---------------------------------------|

E|-----------------|-----------------|-----------------|----------------------|-----------------|
B|-----------------|-----------------|-----------------|----------------------|-----------------|
G|---------5-------|---------7-------|---------5-------|---------7-----7------|---------5-------|
D|-2-------5-------|-5-------7-------|-2-------5-------|-5-------7-----7------|-2-------5-------|
A|-2-------3-------|-5-------5-------|-2-------3-------|-5-------5-----5------|-2-------3-------|
E|-0---------------|-3---------------|-0---------------|-3--------------------|-0---------------|

E|-----------------|-----------------|----------------------|------------------8------7---------|
B|-----------------|-----------------|----------------------|------------------------------10---|
G|---------7-------|---------5-------|---------7-----7------|-9------7----9---------------------|
D|-5-------7-------|-2-------5-------|-5-------7-----7------|-----------------------------------|
A|-5-------5-------|-2-------3-------|-5-------5-----5------|-----------------------------------|
E|-3---------------|-0---------------|-3--------------------|-----------------------------------|

E|-7----------------------------------|------------------8------7---------|-7----------------------------------|
B|--------10---8----10----8-----7-----|------------------------------10---|--------10---8----7-----8-----7-----|
G|------------------------------------|-9------7----9---------------------|------------------------------------|
D|------------------------------------|-----------------------------------|------------------------------------|
A|------------------------------------|-----------------------------------|------------------------------------|
E|------------------------------------|-----------------------------------|------------------------------------|

E|------------------8------7---------|-7----------------------------------|------------------8------7---------|
B|------------------------------10---|--------10---8----10----8-----7-----|------------------------------10---|
G|-9------7----9---------------------|------------------------------------|-9------7----9---------------------|
D|-----------------------------------|------------------------------------|-----------------------------------|
A|-----------------------------------|------------------------------------|-----------------------------------|
E|-----------------------------------|------------------------------------|-----------------------------------|

E|-7----------------------------------|-------------------------------------------------------------|
B|--------10---8----7-----8-----7-----|-------------------------------------------------------------|
G|------------------------------------|-----------%-----------------------------%-------------------|
D|------------------------------------|-----------%-----------------------------%-------------------|
A|------------------------------------|-2----2---------2----2----2----5----5---------5----5----5----|
E|------------------------------------|-0----0---------0----0----0----3----3---------3----3----3----|

E|-------------------------------------------------------------|-------------------------------------------------------------|
B|-------------------------------------------------------------|-------------------------------------------------------------|
G|-----------%-----------------------------%-------------------|-----------%-----------------------------%-------------------|
D|-5----5----%----5----5----5----7----7----%----7----7----7----|-----------%-----------------------------%-------------------|
A|-3----3---------3----3----3----5----5---------5----5----5----|-2----2---------2----2----2----5----5---------5----5----5----|
E|-------------------------------------------------------------|-0----0---------0----0----0----3----3---------3----3----3----|

E|---------------------------------------|-------------------------------------------------------------|
B|---------------------------------------|-------------------------------------------------------------|
G|-----------%---------------------------|-----------%-----------------------------%-------------------|
D|-7----7----%----7----7----7----7-------|-----------%-----------------------------%-------------------|
A|-5----5---------5----5----5----5-------|-2----2---------2----2----2----5----5---------5----5----5----|
E|---------------------------------------|-0----0---------0----0----0----3----3---------3----3----3----|

E|-------------------------------------------------------------|-------------------------------------------------------------|
B|-------------------------------------------------------------|-------------------------------------------------------------|
G|-----------%-----------------------------%-------------------|-----------%-----------------------------%-------------------|
D|-5----5----%----5----5----5----7----7----%----7----7----7----|-----------%-----------------------------%-------------------|
A|-3----3---------3----3----3----5----5---------5----5----5----|-2----2---------2----2----2----5----5---------5----5----5----|
E|-------------------------------------------------------------|-0----0---------0----0----0----3----3---------3----3----3----|

E|---------------------------------------|-------------------------------------------------------------|
B|---------------------------------------|-------------------------------------------------------------|
G|-----------%---------------------------|-----------%-----------------------------%-------------------|
D|-7----7----%----7----7----7----7-------|-----------%-----------------------------%-------------------|
A|-5----5---------5----5----5----5-------|-2----2---------2----2----2----5----5---------5----5----5----|
E|---------------------------------------|-0----0---------0----0----0----3----3---------3----3----3----|

E|-------------------------------------------------------------|-------------------------------------------------------------|
B|-------------------------------------------------------------|-------------------------------------------------------------|
G|-----------%-----------------------------%-------------------|-----------%-----------------------------%-------------------|
D|-5----5----%----5----5----5----7----7----%----7----7----7----|-----------%-----------------------------%-------------------|
A|-3----3---------3----3----3----5----5---------5----5----5----|-2----2---------2----2----2----5----5---------5----5----5----|
E|-------------------------------------------------------------|-0----0---------0----0----0----3----3---------3----3----3----|

E|---------------------------------------|-------------------------------------------------------------|
B|---------------------------------------|-------------------------------------------------------------|
G|-----------%---------------------------|-----------%-----------------------------%-------------------|
D|-7----7----%----7----7----7----7-------|-----------%-----------------------------%-------------------|
A|-5----5---------5----5----5----5-------|-2----2---------2----2----2----5----5---------5----5----5----|
E|---------------------------------------|-0----0---------0----0----0----3----3---------3----3----3----|

E|-------------------------------------------------------------|-------------------------------------------------------------|
B|-------------------------------------------------------------|-------------------------------------------------------------|
G|-----------%-----------------------------%-------------------|-----------%-----------------------------%-------------------|
D|-5----5----%----5----5----5----7----7----%----7----7----7----|-----------%-----------------------------%-------------------|
A|-3----3---------3----3----3----5----5---------5----5----5----|-2----2---------2----2----2----5----5---------5----5----5----|
E|-------------------------------------------------------------|-0----0---------0----0----0----3----3---------3----3----3----|

E|---------------------------------------|-----------------|-----------------|-----------------|
B|---------------------------------------|-----------------|-----------------|-----------------|
G|-----------%---------------------------|---------5-------|---------7-------|---------5-------|
D|-7----7----%----7----7----7----7-------|-2-------5-------|-5-------7-------|-2-------5-------|
A|-5----5---------5----5----5----5-------|-2-------3-------|-5-------5-------|-2-------3-------|
E|---------------------------------------|-0---------------|-3---------------|-0---------------|

E|-----------------|-----------------|-----------------|-----------------|----------------------|
B|-----------------|-----------------|-----------------|-----------------|----------------------|
G|---------7-------|---------5-------|---------7-------|---------5-------|---------7-----7------|
D|-5-------7-------|-2-------5-------|-5-------7-------|-2-------5-------|-5-------7-----7------|
A|-5-------5-------|-2-------3-------|-5-------5-------|-2-------3-------|-5-------5-----5------|
E|-3---------------|-0---------------|-3---------------|-0---------------|-3--------------------|

E|------------------8------7---------|-7----------------------------------|------------------8------7---------|
B|------------------------------10---|--------10---8----10----8-----7-----|------------------------------10---|
G|-9------7----9---------------------|------------------------------------|-9------7----9---------------------|
D|-----------------------------------|------------------------------------|-----------------------------------|
A|-----------------------------------|------------------------------------|-----------------------------------|
E|-----------------------------------|------------------------------------|-----------------------------------|

E|-7----------------------------------|------------------8------7---------|-7----------------------------------|
B|--------10---8----10----8-----7-----|------------------------------10---|--------10---8----10----8-----7-----|
G|------------------------------------|-9------7----9---------------------|------------------------------------|
D|------------------------------------|-----------------------------------|------------------------------------|
A|------------------------------------|-----------------------------------|------------------------------------|
E|------------------------------------|-----------------------------------|------------------------------------|

E|------------------8------7---------|-7----------------------------------|---------------------------------------------------------|
B|------------------------------10---|--------10---8----10----8-----7-----|---------------------------------------------------------|
G|-9------7----9---------------------|------------------------------------|-----------%---------%-----------------------------------|
D|-----------------------------------|------------------------------------|-----------%---------%-----------------------------------|
A|-----------------------------------|------------------------------------|-2----2---------2---------2----5----5----5----5----5-----|
E|-----------------------------------|------------------------------------|-0----0---------0---------0----3----3----3----3----3-----|

E|---------------------------------------------------------|---------------------------------------------------------|
B|---------------------------------------------------------|---------------------------------------------------------|
G|-----------%---------%-----------------------------------|-----------%---------%-----------------------------------|
D|-5----5----%----5----%----5----7----7----7-----7----7----|-----------%---------%-----------------------------------|
A|-3----3---------3---------3----5----5----5-----5----5----|-2----2---------2---------2----5----5----5----5----5-----|
E|---------------------------------------------------------|-0----0---------0---------0----3----3----3----3----3-----|

E|---------------------------------------------------------|---------------------------------------------------------|
B|---------------------------------------------------------|---------------------------------------------------------|
G|-----------%---------%-----------------------------------|-----------%---------%-----------------------------------|
D|-5----5----%----5----%----5----7----7----7-----7----7----|-----------%---------%-----------------------------------|
A|-3----3---------3---------3----5----5----5-----5----5----|-2----2---------2---------2----5----5----5----5----5-----|
E|---------------------------------------------------------|-0----0---------0---------0----3----3----3----3----3-----|

E|---------------------------------------------------------|---------------------------------------------------------|
B|---------------------------------------------------------|---------------------------------------------------------|
G|-----------%---------%-----------------------------------|-----------%---------%-----------------------------------|
D|-5----5----%----5----%----5----7----7----7-----7----7----|-----------%---------%-----------------------------------|
A|-3----3---------3---------3----5----5----5-----5----5----|-2----2---------2---------2----5----5----5----5----5-----|
E|---------------------------------------------------------|-0----0---------0---------0----3----3----3----3----3-----|

E|---------------------------------------------------------|---------------------------|
B|---------------------------------------------------------|---------------------------|
G|-----------%---------%-----------------------------------|-------4-----2-----4-------|
D|-5----5----%----5----%----5----7----7----7-----7----7----|-2-------------------------|
A|-3----3---------3---------3----5----5----5-----5----5----|---------------------------|
E|---------------------------------------------------------|---------------------------|

E|--------------------------------|---------------------------|--------------------------------|
B|--------------------------------|---------------------------|--------------------------------|
G|-4------5-----4------2----------|-------4-----2-----4-------|-4------5-----4------2----------|
D|--------------------------5-----|-2-------------------------|--------------------------5-----|
A|--------------------------------|---------------------------|--------------------------------|
E|--------------------------------|---------------------------|--------------------------------|

E|---------------------------|--------------------------------|---------------------------|
B|---------------------------|--------------------------------|---------------------------|
G|-------4-----2-----4-------|-4------5-----4------2----------|-------4-----2-----4-------|
D|-2-------------------------|--------------------------5-----|-2-------------------------|
A|---------------------------|--------------------------------|---------------------------|
E|---------------------------|--------------------------------|---------------------------|

E|--------------------------------|----------------|----------------|-------------------------------------------------------------|
B|--------------------------------|----------------|----------------|-------------------------------------------------------------|
G|-4------5-----4------2----------|---------%------|-%-------%------|-----------9---------9-------------------9---------9---------|
D|--------------------------5-----|-2-------%------|-%-------%------|-9----9---------9---------9----9----9---------9---------9----|
A|--------------------------------|----------------|----------------|-------------------------------------------------------------|
E|--------------------------------|----------------|----------------|-------------------------------------------------------------|

E|---------------------------------------------------------|-------------------------------------------------------------|
B|-----------10--------10--------8---------8---------8-----|-------------------------------------------------------------|
G|-9----9---------9---------9---------9---------9----------|-5---------5---------5---------7---------7---------7----5----|
D|---------------------------------------------------------|------5---------5---------5---------7---------7--------------|
A|---------------------------------------------------------|-------------------------------------------------------------|
E|---------------------------------------------------------|-------------------------------------------------------------|

E|-------------------------------------------------------------|----------------|----------------|
B|-------------------------------------------------------------|----------------|----------------|
G|-5---------5---------5---------7---------7---------7----5----|-%-------%------|-%-------%------|
D|------5---------5---------5---------7---------7--------------|-%-------%------|-%-------%------|
A|-------------------------------------------------------------|----------------|----------------|
E|-------------------------------------------------------------|----------------|----------------|

E|-------------------------------7-----------7-----|-10-----7----------7-----------------|
B|------7----8----7----8----10---------10----------|-------------10-----------10---8-----|
G|-9-----------------------------------------------|-------------------------------------|
D|-------------------------------------------------|-------------------------------------|
A|-------------------------------------------------|-------------------------------------|
E|-------------------------------------------------|-------------------------------------|

E|--------------------------7-----|-10-----7----------7-----------------|---------------------------|
B|-10----10-----10----10----------|-------------10-----------10---8-----|-10------10----8-----10----|
G|--------------------------------|-------------------------------------|---------------------------|
D|--------------------------------|-------------------------------------|---------------------------|
A|--------------------------------|-------------------------------------|---------------------------|
E|--------------------------------|-------------------------------------|---------------------------|

E|-------------------------------------|---------------------------|-------------------------------------|
B|-10-----10---8-----10-----8----7-----|---------------------7-----|-8------7----------7-----------------|
G|-------------------------------------|-9-------9-----9-----------|-------------9------------9----7-----|
D|-------------------------------------|---------------------------|-------------------------------------|
A|-------------------------------------|---------------------------|-------------------------------------|
E|-------------------------------------|---------------------------|-------------------------------------|

E|--------------------------------|-------------------------------------|---------------------------|
B|--------------------------7-----|-8------7----------7-----------------|---------------------7-----|
G|-9-----4------4-----9-----------|-------------9------------9----7-----|-9-------9-----9-----------|
D|--------------------------------|-------------------------------------|---------------------------|
A|--------------------------------|-------------------------------------|---------------------------|
E|--------------------------------|-------------------------------------|---------------------------|

E|-------------------------------------|---------|---------|-------------------------------7-----------7-----|
B|-8------7----------------------7-----|---------|---------|------7----8----7----8----10---------10----------|
G|-------------9-----7------9----------|-9-------|-9-------|-9-----------------------------------------------|
D|-------------------------------------|---------|---------|-------------------------------------------------|
A|-------------------------------------|---------|---------|-------------------------------------------------|
E|-------------------------------------|---------|---------|-------------------------------------------------|

E|-10-----7----------7-----------------|--------------------------7-----|-10-----7----------7-----------------|
B|-------------10-----------10---8-----|-10----10-----10----10----------|-------------10-----------10---8-----|
G|-------------------------------------|--------------------------------|-------------------------------------|
D|-------------------------------------|--------------------------------|-------------------------------------|
A|-------------------------------------|--------------------------------|-------------------------------------|
E|-------------------------------------|--------------------------------|-------------------------------------|

E|---------------------------|-------------------------------------|---------------------------|
B|-10------10----8-----10----|-10-----10---8-----10-----8----7-----|---------------------7-----|
G|---------------------------|-------------------------------------|-9-------9-----9-----------|
D|---------------------------|-------------------------------------|---------------------------|
A|---------------------------|-------------------------------------|---------------------------|
E|---------------------------|-------------------------------------|---------------------------|

E|-------------------------------------|--------------------------------|-------------------------------------|
B|-8------7----------7-----------------|--------------------------7-----|-8------7----------7-----------------|
G|-------------9------------9----7-----|-9-----4------4-----9-----------|-------------9------------9----7-----|
D|-------------------------------------|--------------------------------|-------------------------------------|
A|-------------------------------------|--------------------------------|-------------------------------------|
E|-------------------------------------|--------------------------------|-------------------------------------|

E|---------------------------|-------------------------------------|---------|---------|
B|---------------------7-----|-8------7----------------------7-----|---------|---------|
G|-9-------9-----9-----------|-------------9-----7------9----------|-9-------|-9-------|
D|---------------------------|-------------------------------------|---------|---------|
A|---------------------------|-------------------------------------|---------|---------|
E|---------------------------|-------------------------------------|---------|---------|

E|-------------------------------7-----------7-----|-10-----7----------7-----------------|
B|------7----8----7----8----10---------10----------|-------------10-----------10---8-----|
G|-9-----------------------------------------------|-------------------------------------|
D|-------------------------------------------------|-------------------------------------|
A|-------------------------------------------------|-------------------------------------|
E|-------------------------------------------------|-------------------------------------|

E|--------------------------7-----|-10-----7----------7-----------------|---------------------------|
B|-10----10-----10----10----------|-------------10-----------10---8-----|-10------10----8-----10----|
G|--------------------------------|-------------------------------------|---------------------------|
D|--------------------------------|-------------------------------------|---------------------------|
A|--------------------------------|-------------------------------------|---------------------------|
E|--------------------------------|-------------------------------------|---------------------------|

E|-------------------------------------|---------------------------|-------------------------------------|
B|-10-----10---8-----10-----8----7-----|---------------------7-----|-8------7----------7-----------------|
G|-------------------------------------|-9-------9-----9-----------|-------------9------------9----7-----|
D|-------------------------------------|---------------------------|-------------------------------------|
A|-------------------------------------|---------------------------|-------------------------------------|
E|-------------------------------------|---------------------------|-------------------------------------|

E|--------------------------------|-------------------------------------|---------------------------|
B|--------------------------7-----|-8------7----------7-----------------|---------------------7-----|
G|-9-----4------4-----9-----------|-------------9------------9----7-----|-9-------9-----9-----------|
D|--------------------------------|-------------------------------------|---------------------------|
A|--------------------------------|-------------------------------------|---------------------------|
E|--------------------------------|-------------------------------------|---------------------------|

E|-------------------------------------|---------|----------------|-----------------|
B|-8------7----------------------7-----|---------|----------------|-----------------|
G|-------------9-----7------9----------|-9-------|-%-------%------|-----------------|
D|-------------------------------------|---------|-%-------%------|-----------------|
A|-------------------------------------|---------|----------------|-2-------2-------|
E|-------------------------------------|---------|----------------|-0-------0-------|

E|-----------------|---------|-----------------|---------|-----------------|---------|
B|-----------------|---------|-----------------|---------|-----------------|---------|
G|-----------------|---------|-----------------|---------|-----------------|---------|
D|-5-------2-------|---------|-5-------2-------|-7-------|-5-------2-------|---------|
A|-3-------0-------|-2-------|-3-------0-------|-5-------|-3-------0-------|-2-------|
E|-----------------|-0-------|-----------------|---------|-----------------|-0-------|

E|-----------------|---------|-----------------|---------|-----------------|---------|
B|-----------------|---------|-----------------|---------|-----------------|---------|
G|-----------------|---------|-----------------|---------|-----------------|---------|
D|-5-------2-------|---------|-5-------2-------|-7-------|-5-------2-------|---------|
A|-3-------0-------|-2-------|-3-------0-------|-5-------|-3-------0-------|-2-------|
E|-----------------|-0-------|-----------------|---------|-----------------|-0-------|

E|---------|-----------------|-----------------|-----------------|-----------------|
B|---------|-----------------|-----------------|-----------------|-----------------|
G|---------|---------5-------|---------7-------|---------5-------|---------7-------|
D|---------|-2-------5-------|-5-------7-------|-2-------5-------|-5-------7-------|
A|-2-------|-2-------3-------|-5-------5-------|-2-------3-------|-5-------5-------|
E|-0-------|-0---------------|-3---------------|-0---------------|-3---------------|

E|-----------------|-----------------|-----------------|----------------------|-----------------|
B|-----------------|-----------------|-----------------|----------------------|-----------------|
G|---------5-------|---------7-------|---------5-------|---------7-----7------|---------5-------|
D|-2-------5-------|-5-------7-------|-2-------5-------|-5-------7-----7------|-2-------5-------|
A|-2-------3-------|-5-------5-------|-2-------3-------|-5-------5-----5------|-2-------3-------|
E|-0---------------|-3---------------|-0---------------|-3--------------------|-0---------------|

E|-----------------|-----------------|-----------------|-----------------|-----------------|
B|-----------------|-----------------|-----------------|-----------------|-----------------|
G|---------7-------|---------5-------|---------7-------|---------5-------|---------7-------|
D|-5-------7-------|-2-------5-------|-5-------7-------|-2-------5-------|-5-------7-------|
A|-5-------5-------|-2-------3-------|-5-------5-------|-2-------3-------|-5-------5-------|
E|-3---------------|-0---------------|-3---------------|-0---------------|-3---------------|

E|-----------------|----------------------|------------------8------7---------|-7----------------------------------|
B|-----------------|----------------------|------------------------------10---|--------10---8----10----8-----7-----|
G|---------5-------|---------7-----7------|-9------7----9---------------------|------------------------------------|
D|-2-------5-------|-5-------7-----7------|-----------------------------------|------------------------------------|
A|-2-------3-------|-5-------5-----5------|-----------------------------------|------------------------------------|
E|-0---------------|-3--------------------|-----------------------------------|------------------------------------|

E|------------------8------7---------|-7----------------------------------|------------------8------7---------|
B|------------------------------10---|--------10---8----7-----8-----7-----|------------------------------10---|
G|-9------7----9---------------------|------------------------------------|-9------7----9---------------------|
D|-----------------------------------|------------------------------------|-----------------------------------|
A|-----------------------------------|------------------------------------|-----------------------------------|
E|-----------------------------------|------------------------------------|-----------------------------------|

E|-7----------------------------------|------------------8------7---------|-7----------------------------------|
B|--------10---8----10----8-----7-----|------------------------------10---|--------10---8----7-----8-----7-----|
G|------------------------------------|-9------7----9---------------------|------------------------------------|
D|------------------------------------|-----------------------------------|------------------------------------|
A|------------------------------------|-----------------------------------|------------------------------------|
E|------------------------------------|-----------------------------------|------------------------------------|

E|-----------------|
B|-----------------|
G|-9-------9-------|
D|-----------------|
A|-----------------|
E|-----------------|
Iron Maiden - Blood Brothers (2)
Iron Maiden - Blood Brothers (2).gp4