Iron Maiden - Blood Brothers (4)

Iron Maiden



Title: Blood Brothers
Album: Rock In Rio
Artist: Iron Maiden
Author: Jean Carl Grech

Track 1: Bass
E|-----------------------|-------------------|-----------------------|-------------------|
B|-----------------------|-------------------|-----------------------|-------------------|
G|-----------------------|-------------------|-------0---------0-----|-------2-----------|
D|-----------------------|-------0-----------|-----------------------|-0-----------0-----|
A|-------2---------2-----|-------------------|-3----------3----------|-------------------|
E|-0----------0----------|-3-----------3-----|-----------------------|-------------------|

E|-----------------------|-------------------|-----------------------|-------------------|
B|-----------------------|-------------------|-----------------------|-------------------|
G|-----------------------|-------------------|-------0---------0-----|-------2-----------|
D|-----------------------|-------0-----------|-----------------------|-0-----------0-----|
A|-------2---------2-----|-------------------|-3----------3----------|-------------------|
E|-0----------0----------|-3-----------3-----|-----------------------|-------------------|

E|-----------------------|-------------------|-----------------------|-------------------|
B|-----------------------|-------------------|-----------------------|-------------------|
G|-----------------------|-------------------|-------0---------0-----|-------2-----------|
D|-----------------------|-------0-----------|-----------------------|-0-----------0-----|
A|-------2---------2-----|-------------------|-3----------3----------|-------------------|
E|-0----------0----------|-3-----------3-----|-----------------------|-------------------|

E|-----------------------|-------------------|-----------------------|-------------------|
B|-----------------------|-------------------|-----------------------|-------------------|
G|-----------------------|-------------------|-------2---------2-----|-------0-----------|
D|-----------------------|-------0-----------|-0----------0----------|-------------------|
A|-------2---------2-----|-------------------|-----------------------|-3-----------3-----|
E|-0----------0----------|-3-----------3-----|-----------------------|-------------------|

E|---------|---------|---------|---------|---------|---------|---------|---------|---------|
B|---------|---------|---------|---------|---------|---------|---------|---------|---------|
G|---------|---------|---------|---------|---------|---------|---------|---------|---------|
D|---------|---------|---------|-0-------|---------|---------|---------|-0-------|---------|
A|---------|---------|-3-------|---------|---------|---------|-3-------|---------|---------|
E|-0-------|-3-------|---------|---------|-0-------|-3-------|---------|---------|-0-------|

E|---------|---------|---------|---------|---------|---------|---------|-----------------------|
B|---------|---------|---------|---------|---------|---------|---------|-----------------------|
G|---------|---------|---------|---------|---------|---------|---------|-----------------------|
D|---------|---------|-0-------|---------|---------|-0-------|---------|-----------------------|
A|---------|-3-------|---------|---------|---------|---------|-3-------|-----------------------|
E|-3-------|---------|---------|-0-------|-3-------|---------|---------|-0------0----0----0----|

E|-------------------|-----------------------|-------------------|-----------------------|
B|-------------------|-----------------------|-------------------|-----------------------|
G|-------------------|-----------------------|-------------------|-----------------------|
D|-------------------|-----------------------|-0-----0-----0-----|-----------------------|
A|-------------------|-3------3----3----3----|-------------------|-----------------------|
E|-3-----3-----3-----|-----------------------|-------------------|-0------0----0----0----|

E|-------------------|-----------------------|-------------------|-----------------------|
B|-------------------|-----------------------|-------------------|-----------------------|
G|-------------------|-----------------------|-------------------|-----------------------|
D|-------------------|-----------------------|-0-----0-----0-----|-----------------------|
A|-------------------|-3------3----3----3----|-------------------|-----------------------|
E|-3-----3-----3-----|-----------------------|-------------------|-0------0----0----0----|

E|-------------------|-----------------------|-------------------|-----------------------|
B|-------------------|-----------------------|-------------------|-----------------------|
G|-------------------|-----------------------|-------------------|-----------------------|
D|-------------------|-----------------------|-0-----0-----0-----|-----------------------|
A|-------------------|-3------3----3----3----|-------------------|-----------------------|
E|-3-----3-----3-----|-----------------------|-------------------|-0------0----0----0----|

E|-------------------|-----------------------|-------------------|-----------------------|
B|-------------------|-----------------------|-------------------|-----------------------|
G|-------------------|-----------------------|-------------------|-----------------------|
D|-------------------|-----------------------|-0-----0-----0-----|-----------------------|
A|-------------------|-3------3----3----3----|-------------------|-----------------------|
E|-3-----3-----3-----|-----------------------|-------------------|-0------0----0----0----|

E|-------------------|-----------------------|-------------------|-----------------------|
B|-------------------|-----------------------|-------------------|-----------------------|
G|-------------------|-----------------------|-------------------|-----------------------|
D|-------------------|-----------------------|-0-----0-----0-----|-----------------------|
A|-------------------|-3------3----3----3----|-------------------|-----------------------|
E|-3-----3-----3-----|-----------------------|-------------------|-0------0----0----0----|

E|-------------------|-----------------------|-------------------|-----------------------|
B|-------------------|-----------------------|-------------------|-----------------------|
G|-------------------|-----------------------|-------------------|-----------------------|
D|-------------------|-----------------------|-0-----0-----0-----|-----------------------|
A|-------------------|-3------3----3----3----|-------------------|-----------------------|
E|-3-----3-----3-----|-----------------------|-------------------|-0------0----0----0----|

E|-------------------|-----------------------|-------------------|-----------------------|
B|-------------------|-----------------------|-------------------|-----------------------|
G|-------------------|-----------------------|-------------------|-----------------------|
D|-------------------|-----------------------|-0-----0-----0-----|-----------------------|
A|-------------------|-3------3----3----3----|-------------------|-----------------------|
E|-3-----3-----3-----|-----------------------|-------------------|-0------0----0----0----|

E|-------------------|-----------------------|-------------------|-----------------------|
B|-------------------|-----------------------|-------------------|-----------------------|
G|-------------------|-----------------------|-------------------|-----------------------|
D|-------------------|-----------------------|-0-----0-----0-----|-----------------------|
A|-------------------|-3------3----3----3----|-------------------|-----------------------|
E|-3-----3-----3-----|-----------------------|-------------------|-0------0----0----0----|

E|-------------------|-----------------------|-------------------|-----------------------|
B|-------------------|-----------------------|-------------------|-----------------------|
G|-------------------|-----------------------|-------------------|-----------------------|
D|-------------------|-----------------------|-0-----0-----0-----|-----------------------|
A|-3-----3-----3-----|-----------------------|-------------------|-----------------------|
E|-------------------|-3------3----3----3----|-------------------|-0------0----0----0----|

E|-------------------|-----------------------|-------------------|-----------------------|
B|-------------------|-----------------------|-------------------|-----------------------|
G|-------------------|-----------------------|-------------------|-----------------------|
D|-------------------|-----------------------|-0-----0-----0-----|-----------------------|
A|-3-----3-----3-----|-----------------------|-------------------|-----------------------|
E|-------------------|-3------3----3----3----|-------------------|-0------0----0----0----|

E|-------------------|-----------------------|-------------------|-----------------------|
B|-------------------|-----------------------|-------------------|-----------------------|
G|-------------------|-----------------------|-------------------|-----------------------|
D|-------------------|-----------------------|-0-----0-----0-----|-----------------------|
A|-3-----3-----3-----|-----------------------|-------------------|-----------------------|
E|-------------------|-3------3----3----3----|-------------------|-0------0----0----0----|

E|-------------------|-----------------------|-------------------|-----------------------|
B|-------------------|-----------------------|-------------------|-----------------------|
G|-------------------|-----------------------|-------------%-----|-----------------------|
D|-------------------|-----------------------|-0-----0-----%-----|-----------------------|
A|-3-----3-----3-----|-----------------------|-------------------|-----------------------|
E|-------------------|-3------3----3----3----|-------------------|-0------0----0----0----|

E|-------------------|-----------------------|-------------------|-----------------------|
B|-------------------|-----------------------|-------------------|-----------------------|
G|-------------------|-----------------------|-------------------|-----------------------|
D|-------------------|-----------------------|-0-----0-----0-----|-----------------------|
A|-------------------|-3------3----3----3----|-------------------|-----------------------|
E|-3-----3-----3-----|-----------------------|-------------------|-0------0----0----0----|

E|-------------------|-----------------------|-------------------|-----------------------|
B|-------------------|-----------------------|-------------------|-----------------------|
G|-------------------|-----------------------|-------------------|-----------------------|
D|-------------------|-----------------------|-0-----0-----0-----|-----------------------|
A|-------------------|-3------3----3----3----|-------------------|-----------------------|
E|-3-----3-----3-----|-----------------------|-------------------|-0------0----0----0----|

E|-------------------|-----------------------|-------------------|-----------------------|
B|-------------------|-----------------------|-------------------|-----------------------|
G|-------------------|-----------------------|-------------------|-----------------------|
D|-------------------|-----------------------|-0-----0-----0-----|-----------------------|
A|-------------------|-3------3----3----3----|-------------------|-----------------------|
E|-3-----3-----3-----|-----------------------|-------------------|-0------0----0----0----|

E|-------------------|-----------------------|-------------------|-----------------------|
B|-------------------|-----------------------|-------------------|-----------------------|
G|-------------------|-----------------------|-------------------|-----------------------|
D|-------------------|-----------------------|-0-----0-----0-----|-----------------------|
A|-------------------|-3------3----3----3----|-------------------|-----------------------|
E|-3-----3-----3-----|-----------------------|-------------------|-0------0----0----0----|

E|-------------------|-----------------------|-------------------|-----------------------|
B|-------------------|-----------------------|-------------------|-----------------------|
G|-------------------|-----------------------|-------------------|-----------------------|
D|-------------------|-----------------------|-0-----0-----0-----|-----------------------|
A|-3-----3-----3-----|-----------------------|-------------------|-----------------------|
E|-------------------|-3------3----3----3----|-------------------|-0------0----0----0----|

E|-------------------|-----------------------|-------------------|-----------------------|
B|-------------------|-----------------------|-------------------|-----------------------|
G|-------------------|-----------------------|-------------------|-----------------------|
D|-------------------|-----------------------|-0-----0-----0-----|-----------------------|
A|-3-----3-----3-----|-----------------------|-------------------|-----------------------|
E|-------------------|-3------3----3----3----|-------------------|-0------0----0----0----|

E|-------------------|-----------------------|-------------------|-----------------------|
B|-------------------|-----------------------|-------------------|-----------------------|
G|-------------------|-----------------------|-------------------|-----------------------|
D|-------------------|-----------------------|-0-----0-----0-----|-----------------------|
A|-3-----3-----3-----|-----------------------|-------------------|-----------------------|
E|-------------------|-3------3----3----3----|-------------------|-0------0----0----0----|

E|-------------------|-----------------------|-------------------|---------|---------|
B|-------------------|-----------------------|-------------------|---------|---------|
G|-------------------|-----------------------|-------------%-----|-%-------|-%-------|
D|-------------------|-----------------------|-0-----0-----%-----|-%-------|-%-------|
A|-3-----3-----3-----|-----------------------|-------------------|---------|---------|
E|-------------------|-3------3----3----3----|-------------------|---------|---------|

E|---------|---------|---------|---------|---------|---------|---------|---------|---------|
B|---------|---------|---------|---------|---------|---------|---------|---------|---------|
G|-%-------|-%-------|-%-------|-%-------|-%-------|-%-------|---------|---------|---------|
D|-%-------|-%-------|-%-------|-%-------|-%-------|-%-------|---------|---------|---------|
A|---------|---------|---------|---------|---------|---------|---------|---------|-3-------|
E|---------|---------|---------|---------|---------|---------|-0-------|-3-------|---------|

E|---------|---------|---------|---------|---------|-----------------------|-------------------|
B|---------|---------|---------|---------|---------|-----------------------|-------------------|
G|---------|---------|---------|---------|---------|-----------------------|-------------------|
D|-0-------|---------|---------|-0-------|---------|-----------------------|-------------------|
A|---------|---------|---------|---------|-3-------|-----------------------|-------------------|
E|---------|-0-------|-3-------|---------|---------|-0------0----0----0----|-3-----3-----3-----|

E|-----------------------|-------------------|-----------------------|-------------------|
B|-----------------------|-------------------|-----------------------|-------------------|
G|-----------------------|-------------------|-----------------------|-------------------|
D|-----------------------|-0-----0-----0-----|-----------------------|-------------------|
A|-3------3----3----3----|-------------------|-----------------------|-------------------|
E|-----------------------|-------------------|-0------0----0----0----|-3-----3-----3-----|

E|-----------------------|-------------------|-----------------------|-------------------|
B|-----------------------|-------------------|-----------------------|-------------------|
G|-----------------------|-------------------|-----------------------|-------------------|
D|-0------0----0----0----|-0-----0-----0-----|-----------------------|-------------------|
A|-----------------------|-------------------|-----------------------|-------------------|
E|-----------------------|-------------------|-0------0----0----0----|-3-----3-----3-----|

E|-----------------------|-------------------|-----------------------|-------------------|
B|-----------------------|-------------------|-----------------------|-------------------|
G|-----------------------|-------------------|-----------------------|-------------------|
D|-----------------------|-0-----0-----0-----|-----------------------|-------------------|
A|-3------3----3----3----|-------------------|-----------------------|-------------------|
E|-----------------------|-------------------|-0------0----0----0----|-3-----3-----3-----|

E|-----------------------|-------------------|-----------------------|-------------------|
B|-----------------------|-------------------|-----------------------|-------------------|
G|-----------------------|-------------------|-----------------------|-------------------|
D|-0------0----0----0----|-0-----0-----0-----|-----------------------|-------------------|
A|-----------------------|-------------------|-----------------------|-------------------|
E|-----------------------|-------------------|-0------0----0----0----|-3-----3-----3-----|

E|-----------------------|-------------------|-----------------------|-------------------|
B|-----------------------|-------------------|-----------------------|-------------------|
G|-----------------------|-------------------|-----------------------|-------------------|
D|-----------------------|-0-----0-----0-----|-----------------------|-------------------|
A|-3------3----3----3----|-------------------|-----------------------|-------------------|
E|-----------------------|-------------------|-0------0----0----0----|-3-----3-----3-----|

E|-----------------------|-------------------|-----------------------|-------------------|
B|-----------------------|-------------------|-----------------------|-------------------|
G|-----------------------|-------------------|-----------------------|-------------------|
D|-0------0----0----0----|-0-----0-----0-----|-----------------------|-------------------|
A|-----------------------|-------------------|-----------------------|-------------------|
E|-----------------------|-------------------|-0------0----0----0----|-3-----3-----3-----|

E|-----------------------|-------------------|-----------------------|-------------------|
B|-----------------------|-------------------|-----------------------|-------------------|
G|-----------------------|-------------------|-----------------------|-------------------|
D|-----------------------|-0-----0-----0-----|-----------------------|-------------------|
A|-3------3----3----3----|-------------------|-----------------------|-------------------|
E|-----------------------|-------------------|-0------0----0----0----|-3-----3-----3-----|

E|-----------------------|-------------------|-----------------------|-------------------|
B|-----------------------|-------------------|-----------------------|-------------------|
G|-----------------------|-------------------|-----------------------|-------------------|
D|-0------0----0----0----|-0-----0-----0-----|-----------------------|-------------------|
A|-----------------------|-------------------|-----------------------|-3-----3-----3-----|
E|-----------------------|-------------------|-0------0----0----0----|-------------------|

E|-----------------------|-------------------|-----------------------|-------------------|
B|-----------------------|-------------------|-----------------------|-------------------|
G|-----------------------|-------------------|-----------------------|-------------------|
D|-----------------------|-0-----0-----0-----|-----------------------|-------------------|
A|-----------------------|-------------------|-----------------------|-3-----3-----3-----|
E|-3------3----3----3----|-------------------|-0------0----0----0----|-------------------|

E|-----------------------|-------------------|-----------------------|-------------------|
B|-----------------------|-------------------|-----------------------|-------------------|
G|-----------------------|-------------------|-----------------------|-------------------|
D|-----------------------|-0-----0-----0-----|-----------------------|-------------------|
A|-----------------------|-------------------|-----------------------|-3-----3-----3-----|
E|-3------3----3----3----|-------------------|-0------0----0----0----|-------------------|

E|-----------------------|-------------------|-----------------------|-------------------|
B|-----------------------|-------------------|-----------------------|-------------------|
G|-----------------------|-------------------|-----------------------|-------------------|
D|-----------------------|-0-----0-----0-----|-----------------------|-------------------|
A|-----------------------|-------------------|-----------------------|-3-----3-----3-----|
E|-3------3----3----3----|-------------------|-0------0----0----0----|-------------------|

E|-----------------------|-------------------|-----------------------|-------------------|
B|-----------------------|-------------------|-----------------------|-------------------|
G|-----------------------|-------------------|-----------------------|-------------------|
D|-----------------------|-0-----0-----0-----|-----------------------|-------------------|
A|-----------------------|-------------------|-----------------------|-------------------|
E|-3------3----3----3----|-------------------|-0------0----0----0----|-3-----3-----3-----|

E|-----------------------|-------------------|-----------------------|-------------------|
B|-----------------------|-------------------|-----------------------|-------------------|
G|-----------------------|-------------------|-----------------------|-------------------|
D|-----------------------|-0-----0-----0-----|-----------------------|-------------------|
A|-3------3----3----3----|-------------------|-----------------------|-------------------|
E|-----------------------|-------------------|-0------0----0----0----|-3-----3-----3-----|

E|-----------------------|-------------------|-----------------------|-------------------|
B|-----------------------|-------------------|-----------------------|-------------------|
G|-----------------------|-------------------|-----------------------|-------------------|
D|-----------------------|-0-----0-----0-----|-----------------------|-------------------|
A|-3------3----3----3----|-------------------|-----------------------|-------------------|
E|-----------------------|-------------------|-0------0----0----0----|-3-----3-----3-----|

E|-----------------------|-------------------|-----------------------|-------------------|
B|-----------------------|-------------------|-----------------------|-------------------|
G|-----------------------|-------------------|-----------------------|-------------------|
D|-----------------------|-0-----0-----0-----|-----------------------|-------------------|
A|-3------3----3----3----|-------------------|-----------------------|-------------------|
E|-----------------------|-------------------|-0------0----0----0----|-3-----3-----3-----|

E|-----------------------|-------------------|-----------------------|-------------------|
B|-----------------------|-------------------|-----------------------|-------------------|
G|-----------------------|-------------------|-----------------------|-------------------|
D|-0------0----0----0----|-------------------|-----------------------|-------------------|
A|-----------------------|-3-----3-----3-----|-----------------------|-------------------|
E|-----------------------|-------------------|-0------0----0----0----|-3-----3-----3-----|

E|-----------------------|-------------------|-----------------------|-------------------|
B|-----------------------|-------------------|-----------------------|-------------------|
G|-----------------------|-------------------|-----------------------|-------------------|
D|-----------------------|-0-----0-----0-----|-----------------------|-------------------|
A|-3------3----3----3----|-------------------|-----------------------|-------------------|
E|-----------------------|-------------------|-0------0----0----0----|-3-----3-----3-----|

E|-----------------------|-------------------|-----------------------|-------------------|
B|-----------------------|-------------------|-----------------------|-------------------|
G|-----------------------|-------------------|-----------------------|-------------------|
D|-----------------------|-0-----0-----0-----|-----------------------|-------------------|
A|-3------3----3----3----|-------------------|-----------------------|-------------------|
E|-----------------------|-------------------|-0------0----0----0----|-3-----3-----3-----|

E|-----------------------|-------------------|-----------------------|-------------------|
B|-----------------------|-------------------|-----------------------|-------------------|
G|-----------------------|-------------------|-----------------------|-------------------|
D|-----------------------|-0-----0-----0-----|-----------------------|-------------------|
A|-3------3----3----3----|-------------------|-----------------------|-------------------|
E|-----------------------|-------------------|-0------0----0----0----|-3-----3-----3-----|

E|-----------------------|-------------------|-----------------------|-------------------|
B|-----------------------|-------------------|-----------------------|-------------------|
G|-----------------------|-------------------|-----------------------|-------------------|
D|-----------------------|-0-----0-----0-----|-----------------------|-------------------|
A|-3------3----3----3----|-------------------|-----------------------|-------------------|
E|-----------------------|-------------------|-0------0----0----0----|-0-----0-----0-----|

E|-----------------------|-------------------|-----------------------|-------------------|
B|-----------------------|-------------------|-----------------------|-------------------|
G|-----------------------|-------------------|-----------------------|-------------------|
D|-----------------------|-------------------|-----------------------|-------------------|
A|-----------------------|-------------------|-3------3----3----3----|-3-----3-----3-----|
E|-0------0----0----0----|-3-----3-----3-----|-----------------------|-------------------|

E|-----------------------|-------------------|-----------------------|-------------------|
B|-----------------------|-------------------|-----------------------|-------------------|
G|-----------------------|-------------------|-----------------------|-------------------|
D|-----------------------|-0-----0-----0-----|-----------------------|-------------------|
A|-0------0----0----0----|-------------------|-----------------------|-------------------|
E|-----------------------|-------------------|-0------0----0----0----|-0-----0-----0-----|

E|-----------------------|-------------------|-----------------------|-------------------|
B|-----------------------|-------------------|-----------------------|-------------------|
G|-----------------------|-------------------|-----------------------|-------------------|
D|-----------------------|-------------------|-----------------------|-------------------|
A|-----------------------|-------------------|-3------3----3----3----|-3-----3-----3-----|
E|-0------0----0----0----|-3-----3-----3-----|-----------------------|-------------------|

E|-----------------------|-------------------|-----------------------|-------------------|
B|-----------------------|-------------------|-----------------------|-------------------|
G|-----------------------|-------------------|-----------------------|-------------------|
D|-----------------------|-0-----0-----0-----|-----------------------|-------------------|
A|-0------0----0----0----|-------------------|-----------------------|-------------------|
E|-----------------------|-------------------|-0------0----0----0----|-0-----0-----0-----|

E|-----------------------|-------------------|-----------------------|-------------------|
B|-----------------------|-------------------|-----------------------|-------------------|
G|-----------------------|-------------------|-----------------------|-------------------|
D|-----------------------|-------------------|-----------------------|-------------------|
A|-----------------------|-------------------|-3------3----3----3----|-3-----3-----3-----|
E|-0------0----0----0----|-3-----3-----3-----|-----------------------|-------------------|

E|-----------------------|-------------------|-----------------------|-------------------|
B|-----------------------|-------------------|-----------------------|-------------------|
G|-----------------------|-------------------|-----------------------|-------------------|
D|-----------------------|-0-----0-----0-----|-----------------------|-------------------|
A|-0------0----0----0----|-------------------|-----------------------|-------------------|
E|-----------------------|-------------------|-0------0----0----0----|-0-----0-----0-----|

E|-----------------------|-------------------|-----------------------|-------------------|
B|-----------------------|-------------------|-----------------------|-------------------|
G|-----------------------|-------------------|-----------------------|-------------------|
D|-----------------------|-------------------|-----------------------|-------------------|
A|-----------------------|-------------------|-3------3----3----3----|-3-----3-----3-----|
E|-0------0----0----0----|-3-----3-----3-----|-----------------------|-------------------|

E|-----------------------|-------------------|---------|---------|---------|---------|
B|-----------------------|-------------------|---------|---------|---------|---------|
G|-----------------------|-------------------|-%-------|-%-------|-%-------|-%-------|
D|-----------------------|-0-----0-----0-----|-%-------|-%-------|-%-------|-%-------|
A|-0------0----0----0----|-------------------|---------|---------|---------|---------|
E|-----------------------|-------------------|---------|---------|---------|---------|

E|-----------------------|-------------------|-----------------------|-------------------|
B|-----------------------|-------------------|-----------------------|-------------------|
G|-----------------------|-------------------|-----------------------|-------------------|
D|-----------------------|-------------------|-----------------------|-------------------|
A|-----------------------|-------------------|-0------0----0----0----|-------------------|
E|-0------0----0----0----|-0-----0-----0-----|-----------------------|-3-----3-----3-----|

E|-----------------------|-------------------|-----------------------|-------------------|
B|-----------------------|-------------------|-----------------------|-------------------|
G|-----------------------|-------------------|-----------------------|-------------------|
D|-----------------------|-------------------|-----------------------|-------------------|
A|-----------------------|-------------------|-0------0----0----0----|-------------------|
E|-0------0----0----0----|-0-----0-----0-----|-----------------------|-3-----3-----3-----|

E|-----------------------|-------------------|-------------------|-------------------|
B|-----------------------|-------------------|-------------------|-------------------|
G|-----------------------|-------------------|-------------------|-------------------|
D|-----------------------|-------------------|-------2-----2-----|-------0-----0-----|
A|-----------------------|-------2-----2-----|-0-----0-----0-----|-------2-----2-----|
E|-0------0----0----0----|-0-----0-----0-----|-------------------|-3-----3-----3-----|

E|-------------------|-------------------|-------------------|-------------------|-------------------|
B|-------------------|-------------------|-------------------|-------------------|-------------------|
G|-------------------|-------------------|-------------------|-------------------|-------------------|
D|-------2-----2-----|-0-----0-----0-----|-------2-----2-----|-------2-----2-----|-------2-----2-----|
A|-3-----3-----3-----|-------------------|-------2-----2-----|-------2-----2-----|-------2-----2-----|
E|-------------------|-------------------|-0-----0-----0-----|-0-----0-----0-----|-0-----0-----0-----|

E|-------------------|-------------------|-------------------|-------------------|-------------------|
B|-------------------|-------------------|-------------------|-------------------|-------------------|
G|-------------------|-------------------|-------------------|-------------------|-------------------|
D|-------2-----2-----|-------2-----2-----|-------2-----2-----|-------2-----2-----|-------2-----2-----|
A|-------2-----2-----|-------2-----2-----|-------2-----2-----|-3-----3-----3-----|-0-----0-----0-----|
E|-0-----0-----0-----|-0-----0-----0-----|-0-----0-----0-----|-------------------|-------------------|

E|-------------------|-------------------|-------------------|-------------------|-------------------|
B|-------------------|-------------------|-------------------|-------------------|-------------------|
G|-------------------|-------------------|-------------------|-------------------|-------------------|
D|-------2-----2-----|-------2-----2-----|-------2-----2-----|-------2-----2-----|-0-----0-----0-----|
A|-------2-----2-----|-------2-----2-----|-3-----3-----3-----|-0-----0-----0-----|-------------------|
E|-0-----0-----0-----|-0-----0-----0-----|-------------------|-------------------|-------------------|

E|-------------------|-------------------|-------------------|-------------------|-------------------|
B|-------------------|-------------------|-------------------|-------------------|-------------------|
G|-------------------|-------------------|-------------------|-------------------|-------------------|
D|-0-----0-----0-----|-------2-----2-----|-------2-----2-----|-------2-----2-----|-------2-----2-----|
A|-------------------|-3-----3-----3-----|-0-----0-----0-----|-------2-----2-----|-------2-----2-----|
E|-------------------|-------------------|-------------------|-0-----0-----0-----|-0-----0-----0-----|

E|-------------------|-------------------|-------------------|-------------------|-------------------|
B|-------------------|-------------------|-------------------|-------------------|-------------------|
G|-------------------|-------------------|-------------------|-------------------|-------------------|
D|-------2-----2-----|-------2-----2-----|-------2-----2-----|-------2-----2-----|-------2-----2-----|
A|-3-----3-----3-----|-0-----0-----0-----|-------2-----2-----|-------2-----2-----|-3-----3-----3-----|
E|-------------------|-------------------|-0-----0-----0-----|-0-----0-----0-----|-------------------|

E|-------------------|-------------------|-------------------|-------------------|-------------------|
B|-------------------|-------------------|-------------------|-------------------|-------------------|
G|-------------------|-------------------|-------------------|-------------------|-------------------|
D|-------2-----2-----|-0-----0-----0-----|-0-----0-----0-----|-------2-----2-----|-------2-----2-----|
A|-0-----0-----0-----|-------------------|-------------------|-3-----3-----3-----|-0-----0-----0-----|
E|-------------------|-------------------|-------------------|-------------------|-------------------|

E|-------------------|-------------------|-------------------|-------------------|-------------------|
B|-------------------|-------------------|-------------------|-------------------|-------------------|
G|-------------------|-------------------|-------------------|-------------------|-------------------|
D|-------2-----2-----|-------2-----2-----|-------2-----2-----|-------2-----2-----|-------2-----2-----|
A|-------2-----2-----|-------2-----2-----|-------2-----2-----|-------2-----2-----|-------2-----2-----|
E|-0-----0-----0-----|-0-----0-----0-----|-0-----0-----0-----|-0-----0-----0-----|-0-----0-----0-----|

E|-------------------|-------------------|-------------------|-------------------|-------------------|
B|-------------------|-------------------|-------------------|-------------------|-------------------|
G|-------------------|-------------------|-------------------|-------------------|-------------------|
D|-------2-----2-----|-------2-----2-----|-------2-----2-----|-------2-----2-----|-------2-----2-----|
A|-------2-----2-----|-3-----3-----3-----|-0-----0-----0-----|-------2-----2-----|-------2-----2-----|
E|-0-----0-----0-----|-------------------|-------------------|-0-----0-----0-----|-0-----0-----0-----|

E|-------------------|-------------------|-------------------|-------------------|-------------------|
B|-------------------|-------------------|-------------------|-------------------|-------------------|
G|-------------------|-------------------|-------------------|-------------------|-------------------|
D|-------2-----2-----|-------2-----2-----|-0-----0-----0-----|-0-----0-----0-----|-------2-----2-----|
A|-3-----3-----3-----|-0-----0-----0-----|-------------------|-------------------|-3-----3-----3-----|
E|-------------------|-------------------|-------------------|-------------------|-------------------|

E|-------------------|-------------------|-------------------|-------------------|-------------------|
B|-------------------|-------------------|-------------------|-------------------|-------------------|
G|-------------------|-------------------|-------------------|-------------------|-------------------|
D|-------2-----2-----|-------2-----2-----|-------2-----2-----|-------2-----2-----|-------2-----2-----|
A|-0-----0-----0-----|-------2-----2-----|-------2-----2-----|-3-----3-----3-----|-0-----0-----0-----|
E|-------------------|-0-----0-----0-----|-0-----0-----0-----|-------------------|-------------------|

E|-------------------|-------------------|-------------------|-------------------|-------------------|
B|-------------------|-------------------|-------------------|-------------------|-------------------|
G|-------------------|-------------------|-------------------|-------------------|-------------------|
D|-------2-----2-----|-------2-----2-----|-------2-----2-----|-------2-----2-----|-0-----0-----0-----|
A|-------2-----2-----|-------2-----2-----|-3-----3-----3-----|-0-----0-----0-----|-------------------|
E|-0-----0-----0-----|-0-----0-----0-----|-------------------|-------------------|-------------------|

E|-------------------|-------------------|-------------------|-------------------|-------------------|
B|-------------------|-------------------|-------------------|-------------------|-------------------|
G|-------------------|-------------------|-------------------|-------------------|-------------------|
D|-0-----0-----0-----|-------2-----2-----|-------2-----2-----|-------2-----2-----|-------2-----2-----|
A|-------------------|-3-----3-----3-----|-0-----0-----0-----|-------2-----2-----|-------2-----2-----|
E|-------------------|-------------------|-------------------|-0-----0-----0-----|-0-----0-----0-----|

E|-------------------|-------------------|-------------------|-------------------|-------------------|
B|-------------------|-------------------|-------------------|-------------------|-------------------|
G|-------------------|-------------------|-------------------|-------------------|-------------------|
D|-------2-----2-----|-------2-----2-----|-------2-----2-----|-------2-----2-----|-------2-----2-----|
A|-------2-----2-----|-------2-----2-----|-------2-----2-----|-------2-----2-----|-3-----3-----3-----|
E|-0-----0-----0-----|-0-----0-----0-----|-0-----0-----0-----|-0-----0-----0-----|-------------------|

E|-------------------|-------------------|-------------------|-------------------|-------------------|
B|-------------------|-------------------|-------------------|-------------------|-------------------|
G|-------------------|-------------------|-------------------|-------------------|-------------------|
D|-------2-----2-----|-------2-----2-----|-------2-----2-----|-------2-----2-----|-------2-----2-----|
A|-0-----0-----0-----|-------2-----2-----|-------2-----2-----|-3-----3-----3-----|-0-----0-----0-----|
E|-------------------|-0-----0-----0-----|-0-----0-----0-----|-------------------|-------------------|

E|-------------------|-------------------|-------------------|-------------------|-------------------|
B|-------------------|-------------------|-------------------|-------------------|-------------------|
G|-------------------|-------------------|-------------------|-------------------|-------------------|
D|-0-----0-----0-----|-0-----0-----0-----|-------2-----2-----|-------2-----2-----|-------2-----2-----|
A|-------------------|-------------------|-3-----3-----3-----|-0-----0-----0-----|-------2-----2-----|
E|-------------------|-------------------|-------------------|-------------------|-0-----0-----0-----|

E|-------------------|-------------------|-------------------|-------------------|-------------------|
B|-------------------|-------------------|-------------------|-------------------|-------------------|
G|-------------------|-------------------|-------------------|-------------------|-------------------|
D|-------2-----2-----|-------2-----2-----|-------2-----2-----|-------2-----2-----|-------2-----2-----|
A|-------2-----2-----|-3-----3-----3-----|-0-----0-----0-----|-------2-----2-----|-------2-----2-----|
E|-0-----0-----0-----|-------------------|-------------------|-0-----0-----0-----|-0-----0-----0-----|

E|-------------------|-------------------|-------------------|-------------------|-------------------|
B|-------------------|-------------------|-------------------|-------------------|-------------------|
G|-------------------|-------------------|-------------------|-------------------|-------------------|
D|-------2-----2-----|-------2-----2-----|-0-----0-----0-----|-0-----0-----0-----|-------2-----2-----|
A|-3-----3-----3-----|-0-----0-----0-----|-------------------|-------------------|-3-----3-----3-----|
E|-------------------|-------------------|-------------------|-------------------|-------------------|

E|-------------------|-------------------|-------------------|-------------------|-------------------|
B|-------------------|-------------------|-------------------|-------------------|-------------------|
G|-------------------|-------------------|-------------------|-------------------|-------------------|
D|-------2-----2-----|-------2-----2-----|-------2-----2-----|-------2-----2-----|-------2-----2-----|
A|-0-----0-----0-----|-------2-----2-----|-------2-----2-----|-------2-----2-----|-------2-----2-----|
E|-------------------|-0-----0-----0-----|-0-----0-----0-----|-0-----0-----0-----|-0-----0-----0-----|

E|-------------------|-------------------|-------------------|-------------------|-------------------|
B|-------------------|-------------------|-------------------|-------------------|-------------------|
G|-------------------|-------------------|-------------------|-------------------|-------------------|
D|-------2-----2-----|-------2-----2-----|-------2-----2-----|-------2-----2-----|-------2-----2-----|
A|-------2-----2-----|-------2-----2-----|-3-----3-----3-----|-0-----0-----0-----|-------2-----2-----|
E|-0-----0-----0-----|-0-----0-----0-----|-------------------|-------------------|-0-----0-----0-----|

E|-------------------|-------------------|-------------------|-------------------|-------------------|
B|-------------------|-------------------|-------------------|-------------------|-------------------|
G|-------------------|-------------------|-------------------|-------2-----2-----|-------2-----2-----|
D|-------2-----2-----|-------2-----2-----|-------2-----2-----|-0-----0-----0-----|-0-----0-----0-----|
A|-------2-----2-----|-3-----3-----3-----|-0-----0-----0-----|-------------------|-------------------|
E|-0-----0-----0-----|-------------------|-------------------|-------------------|-------------------|

E|-------------------|-------------------|-------------------|-------------------|-------------------|
B|-------------------|-------------------|-------------------|-------------------|-------------------|
G|-------------------|-------------------|-------------------|-------------------|-------------------|
D|-------2-----2-----|-------2-----2-----|-------------------|-------------------|-------2-----2-----|
A|-3-----3-----3-----|-0-----0-----0-----|-------2-----2-----|-------2-----2-----|-3-----3-----3-----|
E|-------------------|-------------------|-0-----0-----0-----|-0-----0-----0-----|-------------------|

E|-------------------|-------------------|-------------------|-------------------|-------------------|
B|-------------------|-------------------|-------------------|-------------------|-------------------|
G|-------------------|-------------------|-------------------|-------------------|-------------------|
D|-------2-----2-----|-------------------|-------------------|-------2-----2-----|-------2-----2-----|
A|-0-----0-----0-----|-------2-----2-----|-------2-----2-----|-3-----3-----3-----|-0-----0-----0-----|
E|-------------------|-0-----0-----0-----|-0-----0-----0-----|-------------------|-------------------|

E|-------------------|-------------------|-------------------|-------------------|-------------------|
B|-------------------|-------------------|-------------------|-------------------|-------------------|
G|-------2-----2-----|-------2-----2-----|-------------------|-------------------|-------------------|
D|-0-----0-----0-----|-0-----0-----0-----|-------2-----2-----|-------2-----2-----|-------------------|
A|-------------------|-------------------|-3-----3-----3-----|-0-----0-----0-----|-------2-----2-----|
E|-------------------|-------------------|-------------------|-------------------|-0-----0-----0-----|

E|-------------------|-------------------|-------------------|-----------------------|
B|-------------------|-------------------|-------------------|-----------------------|
G|-------------------|-------------------|-------------------|-----------------------|
D|-------------------|-------------------|-------------------|-----------------------|
A|-------2-----2-----|-------2-----2-----|-------2-----2-----|-----------------------|
E|-0-----0-----0-----|-0-----0-----0-----|-0-----0-----0-----|-0------0----0----0----|

E|-------------------|-----------------------|-------------------|-----------------------|
B|-------------------|-----------------------|-------------------|-----------------------|
G|-------------------|-----------------------|-------------------|-----------------------|
D|-------------------|-----------------------|-0-----0-----0-----|-----------------------|
A|-3-----3-----3-----|-----------------------|-------------------|-----------------------|
E|-------------------|-3------3----3----3----|-------------------|-0------0----0----0----|

E|-------------------|-----------------------|-------------------|-----------------------|
B|-------------------|-----------------------|-------------------|-----------------------|
G|-------------------|-----------------------|-------------------|-----------------------|
D|-------------------|-----------------------|-0-----0-----0-----|-----------------------|
A|-3-----3-----3-----|-----------------------|-------------------|-----------------------|
E|-------------------|-3------3----3----3----|-------------------|-0------0----0----0----|

E|-------------------|-----------------------|-------------------|-----------------------|
B|-------------------|-----------------------|-------------------|-----------------------|
G|-------------------|-----------------------|-------------------|-----------------------|
D|-------------------|-----------------------|-0-----0-----0-----|-----------------------|
A|-3-----3-----3-----|-----------------------|-------------------|-----------------------|
E|-------------------|-3------3----3----3----|-------------------|-0------0----0----0----|

E|-------------------|-----------------------|-------------------|-----------------------|
B|-------------------|-----------------------|-------------------|-----------------------|
G|-------------------|-----------------------|-------------------|-----------------------|
D|-------------------|-----------------------|-0-----0-----0-----|-----------------------|
A|-3-----3-----3-----|-----------------------|-------------------|-----------------------|
E|-------------------|-3------3----3----3----|-------------------|-0------0----0----0----|

E|-------------------|-----------------------|-------------------|-----------------------|
B|-------------------|-----------------------|-------------------|-----------------------|
G|-------------------|-----------------------|-------------------|-----------------------|
D|-------------------|-----------------------|-0-----0-----0-----|-----------------------|
A|-3-----3-----3-----|-----------------------|-------------------|-----------------------|
E|-------------------|-3------3----3----3----|-------------------|-0------0----0----0----|

E|-------------------|-----------------------|-------------------|-----------------------|
B|-------------------|-----------------------|-------------------|-----------------------|
G|-------------------|-----------------------|-------------------|-----------------------|
D|-------------------|-----------------------|-0-----0-----0-----|-----------------------|
A|-3-----3-----3-----|-----------------------|-------------------|-----------------------|
E|-------------------|-3------3----3----3----|-------------------|-0------0----0----0----|

E|-------------------|-----------------------|-------------------|-----------------------|
B|-------------------|-----------------------|-------------------|-----------------------|
G|-------------------|-----------------------|-------------------|-----------------------|
D|-------------------|-----------------------|-0-----0-----0-----|-----------------------|
A|-3-----3-----3-----|-----------------------|-------------------|-----------------------|
E|-------------------|-3------3----3----3----|-------------------|-0------0----0----0----|

E|-------------------|-----------------------|-------------------|---------|---------|
B|-------------------|-----------------------|-------------------|---------|---------|
G|-------------------|-----------------------|-------------------|---------|---------|
D|-------------------|-----------------------|-0-----0-----0-----|---------|---------|
A|-3-----3-----3-----|-----------------------|-------------------|---------|---------|
E|-------------------|-3------3----3----3----|-------------------|-0-------|-3-------|

E|---------|---------|---------|---------|---------|---------|---------|---------|---------|
B|---------|---------|---------|---------|---------|---------|---------|---------|---------|
G|---------|---------|---------|---------|---------|---------|---------|---------|---------|
D|---------|-0-------|---------|---------|---------|-0-------|---------|---------|---------|
A|-3-------|---------|---------|---------|-3-------|---------|---------|---------|-3-------|
E|---------|---------|-0-------|-3-------|---------|---------|-0-------|-3-------|---------|

E|---------|---------|---------|---------|---------|---------|---------|---------|---------|
B|---------|---------|---------|---------|---------|---------|---------|---------|---------|
G|---------|---------|---------|---------|---------|---------|---------|---------|-%-------|
D|-0-------|---------|---------|---------|-0-------|---------|---------|---------|-%-------|
A|---------|---------|---------|-3-------|---------|---------|---------|---------|---------|
E|---------|-0-------|-3-------|---------|---------|-0-------|-0-------|-0-------|---------|
Iron Maiden - Blood Brothers (4)
Iron Maiden - Blood Brothers (4).gp3