Iron Maiden - Brave New World

Iron Maiden



Title: Brave New World
Album: Brave New World
Artist: Iron Maiden
Author: Words & Music by David Murray, Steve Harris & Bruce Dickinson

Track 1: Guitar 1 David Murray
E|-----------------------------------------|-------------------------------------|-----------------------------------------|
B|-----------6--------------5--------------|-8--------------6--------------5-----|-----------6--------------5--------------|
G|------------------------------------5----|-----------5--------------5----------|------------------------------------5----|
D|------7--------------7---------5---------|------5--------------5---------------|------7--------------7---------5---------|
A|-5--------------5------------------------|-------------------------------------|-5--------------5------------------------|
E|-----------------------------------------|-------------------------------------|-----------------------------------------|

E|-------------------------------------|-----------------------------------------|-------------------------------------|
B|-8--------------6--------------5-----|-----------3--------------5--------------|-6--------------5--------------3-----|
G|-----------5--------------5----------|------3--------------3--------------3----|-----------3--------------3----------|
D|------5--------------5---------------|-5--------------5--------------5---------|------5--------------5---------------|
A|-------------------------------------|-----------------------------------------|-------------------------------------|
E|-------------------------------------|-----------------------------------------|-------------------------------------|

E|-----------------------------------------|-------------------------------------|-----------------------------------------|
B|-----------6--------------5--------------|-8--------------6--------------5-----|-----------6--------------5--------------|
G|------------------------------------5----|-----------5--------------5----------|------------------------------------5----|
D|------7--------------7---------5---------|------5--------------5---------------|------7--------------7---------5---------|
A|-5--------------5------------------------|-------------------------------------|-5--------------5------------------------|
E|-----------------------------------------|-------------------------------------|-----------------------------------------|

E|-------------------------------------|-----------------------------------------|-------------------------------------|
B|-8--------------6--------------5-----|-----------6--------------5--------------|-8--------------6--------------5-----|
G|-----------5--------------5----------|------------------------------------5----|-----------5--------------5----------|
D|------5--------------5---------------|------7--------------7---------5---------|------5--------------5---------------|
A|-------------------------------------|-5--------------5------------------------|-------------------------------------|
E|-------------------------------------|-----------------------------------------|-------------------------------------|

E|-----------------------------------------|-------------------------------------|-----------------------------------------|
B|-----------3--------------5--------------|-6--------------5--------------3-----|-----------6--------------5--------------|
G|------3--------------3--------------3----|-----------3--------------3----------|------------------------------------5----|
D|-5--------------5--------------5---------|------5--------------5---------------|------7--------------7---------5---------|
A|-----------------------------------------|-------------------------------------|-5--------------5------------------------|
E|-----------------------------------------|-------------------------------------|-----------------------------------------|

E|-------------------------------------|-----------------------------------------|-------------------------------------|
B|-8--------------6--------------5-----|-----------6--------------5--------------|-8--------------6--------------5-----|
G|-----------5--------------5----------|------------------------------------5----|-----------5--------------5----------|
D|------5--------------5---------------|------7--------------7---------5---------|------5--------------5---------------|
A|-------------------------------------|-5--------------5------------------------|-------------------------------------|
E|-------------------------------------|-----------------------------------------|-------------------------------------|

E|-----------------------------------------|-------------------------------------|-----------------------------------------|
B|-----------6--------------5--------------|-8--------------6--------------5-----|-----------3--------------5--------------|
G|------------------------------------5----|-----------5--------------5----------|------3--------------3--------------3----|
D|------7--------------7---------5---------|------5--------------5---------------|-5--------------5--------------5---------|
A|-5--------------5------------------------|-------------------------------------|-----------------------------------------|
E|-----------------------------------------|-------------------------------------|-----------------------------------------|

E|-------------------------------------|-----------------------------------------|-------------------------------------|
B|-6--------------5--------------3-----|-----------6--------------5--------------|-8--------------6--------------5-----|
G|-----------3--------------3----------|------------------------------------5----|-----------5--------------5----------|
D|------5--------------5---------------|------7--------------7---------5---------|------5--------------5---------------|
A|-------------------------------------|-5--------------5------------------------|-------------------------------------|
E|-------------------------------------|-----------------------------------------|-------------------------------------|

E|-----------------------------------------|-------------------------------------|-----------------------------------------|
B|-----------6--------------5--------------|-8--------------6--------------5-----|-----------6--------------5--------------|
G|------------------------------------5----|-----------5--------------5----------|------------------------------------5----|
D|------7--------------7---------5---------|------5--------------5---------------|------7--------------7---------5---------|
A|-5--------------5------------------------|-------------------------------------|-5--------------5------------------------|
E|-----------------------------------------|-------------------------------------|-----------------------------------------|

E|-------------------------------------|-----------------------------------------|-------------------------------------|
B|-8--------------6--------------5-----|-----------3--------------5--------------|-6--------------5--------------3-----|
G|-----------5--------------5----------|------3--------------3--------------3----|-----------3--------------3----------|
D|------5--------------5---------------|-5--------------5--------------5---------|------5--------------5---------------|
A|-------------------------------------|-----------------------------------------|-------------------------------------|
E|-------------------------------------|-----------------------------------------|-------------------------------------|

E|-----------------------------------------|-------------------------------------|-----------------------------------------|
B|-----------6--------------5--------------|-8--------------6--------------5-----|-----------6--------------5--------------|
G|------------------------------------5----|-----------5--------------5----------|------------------------------------5----|
D|------7--------------7---------5---------|------5--------------5---------------|------7--------------7---------5---------|
A|-5--------------5------------------------|-------------------------------------|-5--------------5------------------------|
E|-----------------------------------------|-------------------------------------|-----------------------------------------|

E|-------------------------------------|-----------------------------------------|-------------------------------------|
B|-8--------------6--------------5-----|-----------6--------------5--------------|-8--------------6--------------5-----|
G|-----------5--------------5----------|------------------------------------5----|-----------5--------------5----------|
D|------5--------------5---------------|------7--------------7---------5---------|------5--------------5---------------|
A|-------------------------------------|-5--------------5------------------------|-------------------------------------|
E|-------------------------------------|-----------------------------------------|-------------------------------------|

E|-----------------------------------------|-------------------------------------|-----------------------------------------|
B|-----------3--------------5--------------|-6--------------5--------------3-----|-----------6--------------5--------------|
G|------3--------------3--------------3----|-----------3--------------3----------|------------------------------------5----|
D|-5--------------5--------------5---------|------5--------------5---------------|------7--------------7---------5---------|
A|-----------------------------------------|-------------------------------------|-5--------------5------------------------|
E|-----------------------------------------|-------------------------------------|-----------------------------------------|

E|-------------------------------------|-----------------------------------------|-------------------------------------|
B|-8--------------6--------------5-----|-----------6--------------5--------------|-8--------------6--------------5-----|
G|-----------5--------------5----------|------------------------------------5----|-----------5--------------5----------|
D|------5--------------5---------------|------7--------------7---------5---------|------5--------------5---------------|
A|-------------------------------------|-5--------------5------------------------|-------------------------------------|
E|-------------------------------------|-----------------------------------------|-------------------------------------|

E|-----------------------------------------|-------------------------------------|-----------------------------------------|
B|-----------6--------------5--------------|-8--------------6--------------5-----|-----------3--------------5--------------|
G|------------------------------------5----|-----------5--------------5----------|------3--------------3--------------3----|
D|------7--------------7---------5---------|------5--------------5---------------|-5--------------5--------------5---------|
A|-5--------------5------------------------|-------------------------------------|-----------------------------------------|
E|-----------------------------------------|-------------------------------------|-----------------------------------------|

E|-------------------------------------|-----------------------------------------|-------------------------------------|
B|-6--------------5--------------3-----|-----------6--------------5--------------|-6--------------5--------------6-----|
G|-----------3--------------3----------|------------------------------------5----|-------------------------------------|
D|------5--------------5---------------|------7--------------7---------5---------|-----------7--------------7----------|
A|-------------------------------------|-5--------------5------------------------|------5--------------5---------------|
E|-------------------------------------|-----------------------------------------|-------------------------------------|

E|---------|---------|---------|---------|---------|---------|---------|---------|---------|
B|---------|---------|---------|---------|---------|---------|---------|---------|---------|
G|-%-------|-%-------|-%-------|-%-------|-%-------|-%-------|-%-------|-%-------|-%-------|
D|-%-------|-%-------|-%-------|-%-------|-%-------|-%-------|-%-------|-%-------|-%-------|
A|---------|---------|---------|---------|---------|---------|---------|---------|---------|
E|---------|---------|---------|---------|---------|---------|---------|---------|---------|

E|---------|---------|---------|---------|---------|---------|---------|---------|---------|
B|---------|---------|---------|---------|---------|---------|---------|---------|---------|
G|-%-------|-%-------|-%-------|-%-------|-%-------|-%-------|-%-------|-%-------|-%-------|
D|-%-------|-%-------|-%-------|-%-------|-%-------|-%-------|-%-------|-%-------|-%-------|
A|---------|---------|---------|---------|---------|---------|---------|---------|---------|
E|---------|---------|---------|---------|---------|---------|---------|---------|---------|

E|---------|---------|---------|---------|---------|---------|---------|---------|---------|
B|---------|---------|---------|---------|---------|---------|---------|---------|---------|
G|-%-------|-%-------|-%-------|-%-------|-%-------|-%-------|-%-------|-%-------|-%-------|
D|-%-------|-%-------|-%-------|-%-------|-%-------|-%-------|-%-------|-%-------|-%-------|
A|---------|---------|---------|---------|---------|---------|---------|---------|---------|
E|---------|---------|---------|---------|---------|---------|---------|---------|---------|

E|---------|---------|---------|---------|---------|---------------------------------|
B|---------|---------|---------|---------|---------|---------------------------------|
G|-%-------|-%-------|-%-------|-%-------|-%-------|---------------------------------|
D|-%-------|-%-------|-%-------|-%-------|-%-------|---------------------------------|
A|---------|---------|---------|---------|---------|-5-----5----5----5-----5----5----|
E|---------|---------|---------|---------|---------|---------------------------------|

E|---------------------------------|---------------------------------|----------------------------------------------|
B|---------------------------------|---------------------------------|----------------------------------------------|
G|---------------------------------|---------------------------------|----------------------------------------------|
D|---------------------------------|---------------------------------|----------------5----5----7----5--------------|
A|-5-----5----5----5-----5----5----|-5-----5----5----5-----5----5----|-5----7----8------------------------8----7----|
E|---------------------------------|---------------------------------|----------------------------------------------|

E|---------------------------------|---------------------------------|---------------------------------|
B|---------------------------------|---------------------------------|---------------------------------|
G|---------------------------------|---------------------------------|---------------------------------|
D|---------------------------------|---------------------------------|---------------------------------|
A|-5-----5----5----5-----5----5----|-5-----5----5----5-----5----5----|-5-----5----5----5-----5----5----|
E|---------------------------------|---------------------------------|---------------------------------|

E|-----------------------------------------|---------------------------------|---------------------------------|
B|-----------------------------------------|---------------------------------|---------------------------------|
G|-----------------------------------------|---------------------------------|---------------------------------|
D|-7----5--------------5-------------------|---------------------------------|---------------------------------|
A|-----------8----7---------8----7----5----|-5-----5----5----5-----5----5----|-5-----5----5----5-----5----5----|
E|-----------------------------------------|---------------------------------|---------------------------------|

E|---------------------------------|----------------------------------------------|
B|---------------------------------|----------------------------------------------|
G|---------------------------------|----------------------------------------------|
D|---------------------------------|----------------5----5----7----5--------------|
A|-5-----5----5----5-----5----5----|-5----7----8------------------------8----7----|
E|---------------------------------|----------------------------------------------|

E|---------------------------------|---------------------------------|---------------------------------|
B|---------------------------------|---------------------------------|---------------------------------|
G|---------------------------------|---------------------------------|---------------------------------|
D|---------------------------------|---------------------------------|---------------------------------|
A|-5-----5----5----5-----5----5----|-5-----5----5----5-----5----5----|-5-----5----5----5-----5----5----|
E|---------------------------------|---------------------------------|---------------------------------|

E|-----------------------------------------|---------------------------------|---------------------------------|
B|-----------------------------------------|---------------------------------|---------------------------------|
G|-----------------------------------------|---------------------------------|---------------------------------|
D|-7----5--------------5-------------------|---------------------------------|---------------------------------|
A|-----------8----7---------8----7----5----|-5-----5----5----5-----5----5----|-5-----5----5----5-----5----5----|
E|-----------------------------------------|---------------------------------|---------------------------------|

E|---------------------------------|----------------------------------------------|
B|---------------------------------|----------------------------------------------|
G|---------------------------------|----------------------------------------------|
D|---------------------------------|----------------5----5----7----5--------------|
A|-5-----5----5----5-----5----5----|-5----7----8------------------------8----7----|
E|---------------------------------|----------------------------------------------|

E|---------------------------------|---------------------------------|---------------------------------|
B|---------------------------------|---------------------------------|---------------------------------|
G|---------------------------------|---------------------------------|---------------------------------|
D|---------------------------------|---------------------------------|---------------------------------|
A|-5-----5----5----5-----5----5----|-5-----5----5----5-----5----5----|-5-----5----5----5-----5----5----|
E|---------------------------------|---------------------------------|---------------------------------|

E|-----------------------------------------|---------------------------------|---------------------------------|
B|-----------------------------------------|---------------------------------|---------------------------------|
G|-----------------------------------------|---------------------------------|---------------------------------|
D|-7----5--------------5-------------------|---------------------------------|---------------------------------|
A|-----------8----7---------8----7----5----|-5-----5----5----5-----5----5----|-5-----5----5----5-----5----5----|
E|-----------------------------------------|---------------------------------|---------------------------------|

E|---------------------------------|-----------------------------------------|---------------------------------|
B|---------------------------------|-----------------------------------------|---------------------------------|
G|---------------------------------|-----------------------------------------|---------------------------------|
D|---------------------------------|-7----5--------------5-------------------|---------------------------------|
A|-5-----5----5----5-----5----5----|-----------8----7---------8----7----5----|-5-----5----5----5-----5----5----|
E|---------------------------------|-----------------------------------------|---------------------------------|

E|---------------------------------|---------------------------------|---------------------------------|
B|---------------------------------|---------------------------------|---------------------------------|
G|---------------------------------|---------------------------------|---------------------------------|
D|---------------------------------|---------------------------------|---------------------------------|
A|-5-----5----5----5-----5----5----|-5-----5----5----5-----5----5----|-5-----5----5----5-----5----5----|
E|---------------------------------|---------------------------------|---------------------------------|

E|---------|---------|---------|---------|---------|---------|---------|---------|---------|
B|---------|---------|---------|---------|---------|---------|---------|---------|---------|
G|-%-------|-%-------|-%-------|-%-------|-%-------|-%-------|-%-------|-%-------|-%-------|
D|-%-------|-%-------|-%-------|-%-------|-%-------|-%-------|-%-------|-%-------|-%-------|
A|---------|---------|---------|---------|---------|---------|---------|---------|---------|
E|---------|---------|---------|---------|---------|---------|---------|---------|---------|

E|---------|---------|---------|---------|---------|---------|---------|---------|---------|
B|---------|---------|---------|---------|---------|---------|---------|---------|---------|
G|-%-------|-%-------|-%-------|-%-------|-%-------|-%-------|-%-------|-%-------|-%-------|
D|-%-------|-%-------|-%-------|-%-------|-%-------|-%-------|-%-------|-%-------|-%-------|
A|---------|---------|---------|---------|---------|---------|---------|---------|---------|
E|---------|---------|---------|---------|---------|---------|---------|---------|---------|

E|---------|---------|---------|---------|---------|---------|---------|---------|---------|
B|---------|---------|---------|---------|---------|---------|---------|---------|---------|
G|-%-------|-%-------|-%-------|-%-------|-%-------|-%-------|-%-------|-%-------|-%-------|
D|-%-------|-%-------|-%-------|-%-------|-%-------|-%-------|-%-------|-%-------|-%-------|
A|---------|---------|---------|---------|---------|---------|---------|---------|---------|
E|---------|---------|---------|---------|---------|---------|---------|---------|---------|

E|---------|---------|---------|---------|---------|---------------------------------|
B|---------|---------|---------|---------|---------|---------------------------------|
G|-%-------|-%-------|-%-------|-%-------|-%-------|---------------------------------|
D|-%-------|-%-------|-%-------|-%-------|-%-------|---------------------------------|
A|---------|---------|---------|---------|---------|-5-----5----5----5-----5----5----|
E|---------|---------|---------|---------|---------|---------------------------------|

E|---------------------------------|---------------------------------|----------------------------------------------|
B|---------------------------------|---------------------------------|----------------------------------------------|
G|---------------------------------|---------------------------------|----------------------------------------------|
D|---------------------------------|---------------------------------|----------------5----5----7----5--------------|
A|-5-----5----5----5-----5----5----|-5-----5----5----5-----5----5----|-5----7----8------------------------8----7----|
E|---------------------------------|---------------------------------|----------------------------------------------|

E|---------------------------------|---------------------------------|---------------------------------|
B|---------------------------------|---------------------------------|---------------------------------|
G|---------------------------------|---------------------------------|---------------------------------|
D|---------------------------------|---------------------------------|---------------------------------|
A|-5-----5----5----5-----5----5----|-5-----5----5----5-----5----5----|-5-----5----5----5-----5----5----|
E|---------------------------------|---------------------------------|---------------------------------|

E|-----------------------------------------|---------------------------------|---------------------------------|
B|-----------------------------------------|---------------------------------|---------------------------------|
G|-----------------------------------------|---------------------------------|---------------------------------|
D|-7----5--------------5-------------------|---------------------------------|---------------------------------|
A|-----------8----7---------8----7----5----|-5-----5----5----5-----5----5----|-5-----5----5----5-----5----5----|
E|-----------------------------------------|---------------------------------|---------------------------------|

E|---------------------------------|----------------------------------------------|
B|---------------------------------|----------------------------------------------|
G|---------------------------------|----------------------------------------------|
D|---------------------------------|----------------5----5----7----5--------------|
A|-5-----5----5----5-----5----5----|-5----7----8------------------------8----7----|
E|---------------------------------|----------------------------------------------|

E|---------------------------------|---------------------------------|---------------------------------|
B|---------------------------------|---------------------------------|---------------------------------|
G|---------------------------------|---------------------------------|---------------------------------|
D|---------------------------------|---------------------------------|---------------------------------|
A|-5-----5----5----5-----5----5----|-5-----5----5----5-----5----5----|-5-----5----5----5-----5----5----|
E|---------------------------------|---------------------------------|---------------------------------|

E|-----------------------------------------|---------------------------------|---------------------------------|
B|-----------------------------------------|---------------------------------|---------------------------------|
G|-----------------------------------------|---------------------------------|---------------------------------|
D|-7----5--------------5-------------------|---------------------------------|---------------------------------|
A|-----------8----7---------8----7----5----|-5-----5----5----5-----5----5----|-5-----5----5----5-----5----5----|
E|-----------------------------------------|---------------------------------|---------------------------------|

E|---------------------------------|----------------------------------------------|
B|---------------------------------|----------------------------------------------|
G|---------------------------------|----------------------------------------------|
D|---------------------------------|----------------5----5----7----5--------------|
A|-5-----5----5----5-----5----5----|-5----7----8------------------------8----7----|
E|---------------------------------|----------------------------------------------|

E|---------------------------------|---------------------------------|---------------------------------|
B|---------------------------------|---------------------------------|---------------------------------|
G|---------------------------------|---------------------------------|---------------------------------|
D|---------------------------------|---------------------------------|---------------------------------|
A|-5-----5----5----5-----5----5----|-5-----5----5----5-----5----5----|-5-----5----5----5-----5----5----|
E|---------------------------------|---------------------------------|---------------------------------|

E|-----------------------------------------|---------------------------------|---------------------------------|
B|-----------------------------------------|---------------------------------|---------------------------------|
G|-----------------------------------------|---------------------------------|---------------------------------|
D|-7----5--------------5-------------------|---------------------------------|---------------------------------|
A|-----------8----7---------8----7----5----|-5-----5----5----5-----5----5----|-5-----5----5----5-----5----5----|
E|-----------------------------------------|---------------------------------|---------------------------------|

E|---------------------------------|-----------------------------------------|---------------------------------|
B|---------------------------------|-----------------------------------------|---------------------------------|
G|---------------------------------|-----------------------------------------|---------------------------------|
D|---------------------------------|-7----5--------------5-------------------|---------------------------------|
A|-5-----5----5----5-----5----5----|-----------8----7---------8----7----5----|-5-----5----5----5-----5----5----|
E|---------------------------------|-----------------------------------------|---------------------------------|

E|---------------------------------|---------------------------------|---------------------------------|
B|---------------------------------|---------------------------------|---------------------------------|
G|---------------------------------|---------------------------------|---------------------------------|
D|---------------------------------|---------------------------------|---------------------------------|
A|-5-----5----5----5-----5----5----|-5-----5----5----5-----5----5----|-5-----5----5----5-----5----5----|
E|---------------------------------|---------------------------------|---------------------------------|

E|---------|---------|---------|---------|---------|---------|---------|---------|---------|
B|---------|---------|---------|---------|---------|---------|---------|---------|---------|
G|-%-------|-%-------|-%-------|-%-------|-%-------|-%-------|-%-------|-%-------|-%-------|
D|-%-------|-%-------|-%-------|-%-------|-%-------|-%-------|-%-------|-%-------|-%-------|
A|---------|---------|---------|---------|---------|---------|---------|---------|---------|
E|---------|---------|---------|---------|---------|---------|---------|---------|---------|

E|---------|---------|---------|---------|---------|---------|---------|---------|---------|
B|---------|---------|---------|---------|---------|---------|---------|---------|---------|
G|-%-------|-%-------|-%-------|-%-------|-%-------|-%-------|-%-------|-%-------|-%-------|
D|-%-------|-%-------|-%-------|-%-------|-%-------|-%-------|-%-------|-%-------|-%-------|
A|---------|---------|---------|---------|---------|---------|---------|---------|---------|
E|---------|---------|---------|---------|---------|---------|---------|---------|---------|

E|---------|---------|---------|---------|---------|---------|---------|---------|---------|
B|---------|---------|---------|---------|---------|---------|---------|---------|---------|
G|-%-------|-%-------|-%-------|-%-------|-%-------|-%-------|-%-------|-%-------|-%-------|
D|-%-------|-%-------|-%-------|-%-------|-%-------|-%-------|-%-------|-%-------|-%-------|
A|---------|---------|---------|---------|---------|---------|---------|---------|---------|
E|---------|---------|---------|---------|---------|---------|---------|---------|---------|

E|---------|---------|---------|---------|---------|-----------------------------------------------------------------|
B|---------|---------|---------|---------|---------|-----------------------------------------------------------------|
G|-%-------|-%-------|-%-------|-%-------|-%-------|-%---%---%---%---%---%---%---%---%---%---%---%---%---%---%---%---|
D|-%-------|-%-------|-%-------|-%-------|-%-------|-%---%---%---%---%---%---%---%---%---%---%---%---%---%---%---%---|
A|---------|---------|---------|---------|---------|-----------------------------------------------------------------|
E|---------|---------|---------|---------|---------|-----------------------------------------------------------------|

E|-----------------------------------------------------------------|-----------------------------------------------------------------|
B|-----------------------------------------------------------------|-----------------------------------------------------------------|
G|-%---%---%---%---%---%---%---%---%---%---%---%---%---%---%---%---|-%---%---%---%---%---%---%---%---%---%---%---%---%---%---%---%---|
D|-%---%---%---%---%---%---%---%---%---%---%---%---%---%---%---%---|-%---%---%---%---%---%---%---%---%---%---%---%---%---%---%---%---|
A|-----------------------------------------------------------------|-----------------------------------------------------------------|
E|-----------------------------------------------------------------|-----------------------------------------------------------------|

E|-----------------------------------------------------------------|-----------------------------------------------------------------|
B|-----------------------------------------------------------------|-----------------------------------------------------------------|
G|-%---%---%---%---%---%---%---%---%---%---%---%---%---%---%---%---|-%---%---%---%---%---%---%---%---%---%---%---%---%---%---%---%---|
D|-%---%---%---%---%---%---%---%---%---%---%---%---%---%---%---%---|-%---%---%---%---%---%---%---%---%---%---%---%---%---%---%---%---|
A|-----------------------------------------------------------------|-----------------------------------------------------------------|
E|-----------------------------------------------------------------|-----------------------------------------------------------------|

E|-----------------------------------------------------------------|-----------------------------------------------------------------|
B|-----------------------------------------------------------------|-----------------------------------------------------------------|
G|-%---%---%---%---%---%---%---%---%---%---%---%---%---%---%---%---|-%---%---%---%---%---%---%---%---%---%---%---%---%---%---%---%---|
D|-%---%---%---%---%---%---%---%---%---%---%---%---%---%---%---%---|-%---%---%---%---%---%---%---%---%---%---%---%---%---%---%---%---|
A|-----------------------------------------------------------------|-----------------------------------------------------------------|
E|-----------------------------------------------------------------|-----------------------------------------------------------------|

E|-----------------------------------------------------------------|-----------------------------------------------------------------|
B|-----------------------------------------------------------------|-----------------------------------------------------------------|
G|-%---%---%---%---%---%---%---%---%---%---%---%---%---%---%---%---|-%---%---%---%---%---%---%---%---%---%---%---%---%---%---%---%---|
D|-%---%---%---%---%---%---%---%---%---%---%---%---%---%---%---%---|-%---%---%---%---%---%---%---%---%---%---%---%---%---%---%---%---|
A|-----------------------------------------------------------------|-----------------------------------------------------------------|
E|-----------------------------------------------------------------|-----------------------------------------------------------------|

E|-----------------------------------------------------------------|-----------------------------------------------------------------|
B|-----------------------------------------------------------------|-----------------------------------------------------------------|
G|-%---%---%---%---%---%---%---%---%---%---%---%---%---%---%---%---|-%---%---%---%---%---%---%---%---%---%---%---%---%---%---%---%---|
D|-%---%---%---%---%---%---%---%---%---%---%---%---%---%---%---%---|-%---%---%---%---%---%---%---%---%---%---%---%---%---%---%---%---|
A|-----------------------------------------------------------------|-----------------------------------------------------------------|
E|-----------------------------------------------------------------|-----------------------------------------------------------------|

E|-----------------------------------------------------------------|-----------------------------------------------------------------|
B|-----------------------------------------------------------------|-----------------------------------------------------------------|
G|-%---%---%---%---%---%---%---%---%---%---%---%---%---%---%---%---|-%---%---%---%---%---%---%---%---%---%---%---%---%---%---%---%---|
D|-%---%---%---%---%---%---%---%---%---%---%---%---%---%---%---%---|-%---%---%---%---%---%---%---%---%---%---%---%---%---%---%---%---|
A|-----------------------------------------------------------------|-----------------------------------------------------------------|
E|-----------------------------------------------------------------|-----------------------------------------------------------------|

E|-----------------------------------------------------------------|-----------------------------------------------------------------|
B|-----------------------------------------------------------------|-----------------------------------------------------------------|
G|-%---%---%---%---%---%---%---%---%---%---%---%---%---%---%---%---|-%---%---%---%---%---%---%---%---%---%---%---%---%---%---%---%---|
D|-%---%---%---%---%---%---%---%---%---%---%---%---%---%---%---%---|-%---%---%---%---%---%---%---%---%---%---%---%---%---%---%---%---|
A|-----------------------------------------------------------------|-----------------------------------------------------------------|
E|-----------------------------------------------------------------|-----------------------------------------------------------------|

E|-----------------------------------------------------------------|---------|---------------|
B|-----------------------------------------------------------------|-12------|-13-----15-----|
G|-%---%---%---%---%---%---%---%---%---%---%---%---%---%---%---%---|---------|---------------|
D|-%---%---%---%---%---%---%---%---%---%---%---%---%---%---%---%---|---------|---------------|
A|-----------------------------------------------------------------|---------|---------------|
E|-----------------------------------------------------------------|---------|---------------|

E|---------|---------------|---------|---------------|---------|---------|---------|
B|-12------|-13-----15-----|-10------|-12-----13-----|-12------|-12------|-12------|
G|---------|---------------|---------|---------------|---------|---------|---------|
D|---------|---------------|---------|---------------|---------|---------|---------|
A|---------|---------------|---------|---------------|---------|---------|---------|
E|---------|---------------|---------|---------------|---------|---------|---------|

E|---------------|---------|---------------|---------|---------------|-------------------------------8---------|
B|-13-----15-----|-12------|-13-----15-----|-10------|-12-----13-----|-8----10---12---8----10---12--------10---|
G|---------------|---------|---------------|---------|---------------|-----------------------------------------|
D|---------------|---------|---------------|---------|---------------|-----------------------------------------|
A|---------------|---------|---------------|---------|---------------|-----------------------------------------|
E|---------------|---------|---------------|---------|---------------|-----------------------------------------|

E|------8----10--------8----10---12--------|---------|---------------|---------|---------------|
B|-12-------------12-----------------------|-12------|-13-----15-----|-12------|-13-----15-----|
G|------------------------------------%----|---------|---------------|---------|---------------|
D|------------------------------------%----|---------|---------------|---------|---------------|
A|-----------------------------------------|---------|---------------|---------|---------------|
E|-----------------------------------------|---------|---------------|---------|---------------|

E|---------|---------------|---------|---------|---------|---------------|---------|
B|-10------|-12-----13-----|-12------|-12------|-12------|-13-----15-----|-12------|
G|---------|---------------|---------|---------|---------|---------------|---------|
D|---------|---------------|---------|---------|---------|---------------|---------|
A|---------|---------------|---------|---------|---------|---------------|---------|
E|---------|---------------|---------|---------|---------|---------------|---------|

E|---------------|---------|---------------|-----------------------------------------|
B|-13-----15-----|-10------|-12-----13-----|-12---10---8----10---8---------8---------|
G|---------------|---------|---------------|--------------------------11--------11---|
D|---------------|---------|---------------|-----------------------------------------|
A|---------------|---------|---------------|-----------------------------------------|
E|---------------|---------|---------------|-----------------------------------------|

E|-----------------------------------------|---------------------------------|---------------------------------|
B|-----------------------------------------|---------------------------------|---------------------------------|
G|-9----11---9----7----9----7--------------|---------------------------------|---------------------------------|
D|-------------------------------10---9----|---------------------------------|---------------------------------|
A|-----------------------------------------|-5-----5----5----5-----5----5----|-5-----5----5----5-----5----5----|
E|-----------------------------------------|---------------------------------|---------------------------------|

E|---------------------------------|----------------------------------------------|
B|---------------------------------|----------------------------------------------|
G|---------------------------------|----------------------------------------------|
D|---------------------------------|----------------5----5----7----5--------------|
A|-5-----5----5----5-----5----5----|-5----7----8------------------------8----7----|
E|---------------------------------|----------------------------------------------|

E|---------------------------------|---------------------------------|---------------------------------|
B|---------------------------------|---------------------------------|---------------------------------|
G|---------------------------------|---------------------------------|---------------------------------|
D|---------------------------------|---------------------------------|---------------------------------|
A|-5-----5----5----5-----5----5----|-5-----5----5----5-----5----5----|-5-----5----5----5-----5----5----|
E|---------------------------------|---------------------------------|---------------------------------|

E|-----------------------------------------|---------------------------------|---------------------------------|
B|-----------------------------------------|---------------------------------|---------------------------------|
G|-----------------------------------------|---------------------------------|---------------------------------|
D|-7----5--------------5-------------------|---------------------------------|---------------------------------|
A|-----------8----7---------8----7----5----|-5-----5----5----5-----5----5----|-5-----5----5----5-----5----5----|
E|-----------------------------------------|---------------------------------|---------------------------------|

E|---------------------------------|----------------------------------------------|
B|---------------------------------|----------------------------------------------|
G|---------------------------------|----------------------------------------------|
D|---------------------------------|----------------5----5----7----5--------------|
A|-5-----5----5----5-----5----5----|-5----7----8------------------------8----7----|
E|---------------------------------|----------------------------------------------|

E|---------------------------------|---------------------------------|---------------------------------|
B|---------------------------------|---------------------------------|---------------------------------|
G|---------------------------------|---------------------------------|---------------------------------|
D|---------------------------------|---------------------------------|---------------------------------|
A|-5-----5----5----5-----5----5----|-5-----5----5----5-----5----5----|-5-----5----5----5-----5----5----|
E|---------------------------------|---------------------------------|---------------------------------|

E|-----------------------------------------|---------------------------------|---------------------------------|
B|-----------------------------------------|---------------------------------|---------------------------------|
G|-----------------------------------------|---------------------------------|---------------------------------|
D|-7----5--------------5-------------------|---------------------------------|---------------------------------|
A|-----------8----7---------8----7----5----|-5-----5----5----5-----5----5----|-5-----5----5----5-----5----5----|
E|-----------------------------------------|---------------------------------|---------------------------------|

E|---------------------------------|----------------------------------------------|
B|---------------------------------|----------------------------------------------|
G|---------------------------------|----------------------------------------------|
D|---------------------------------|----------------5----5----7----5--------------|
A|-5-----5----5----5-----5----5----|-5----7----8------------------------8----7----|
E|---------------------------------|----------------------------------------------|

E|---------------------------------|---------------------------------|---------------------------------|
B|---------------------------------|---------------------------------|---------------------------------|
G|---------------------------------|---------------------------------|---------------------------------|
D|---------------------------------|---------------------------------|---------------------------------|
A|-5-----5----5----5-----5----5----|-5-----5----5----5-----5----5----|-5-----5----5----5-----5----5----|
E|---------------------------------|---------------------------------|---------------------------------|

E|-----------------------------------------|---------------------------------|---------------------------------|
B|-----------------------------------------|---------------------------------|---------------------------------|
G|-----------------------------------------|---------------------------------|---------------------------------|
D|-7----5--------------5-------------------|---------------------------------|---------------------------------|
A|-----------8----7---------8----7----5----|-5-----5----5----5-----5----5----|-5-----5----5----5-----5----5----|
E|-----------------------------------------|---------------------------------|---------------------------------|

E|---------------------------------|-----------------------------------------|---------------------------------|
B|---------------------------------|-----------------------------------------|---------------------------------|
G|---------------------------------|-----------------------------------------|---------------------------------|
D|---------------------------------|-7----5--------------5-------------------|---------------------------------|
A|-5-----5----5----5-----5----5----|-----------8----7---------8----7----5----|-5-----5----5----5-----5----5----|
E|---------------------------------|-----------------------------------------|---------------------------------|

E|---------------------------------|---------|---------|---------|-----------------------------------------|
B|---------------------------------|---------|---------|---------|-----------6--------------5--------------|
G|---------------------------------|-7-------|-7-------|-7-------|------------------------------------5----|
D|---------------------------------|-7-------|-7-------|-7-------|------7--------------7---------5---------|
A|-5-----5----5----5-----5----5----|-5-------|-5-------|-5-------|-5--------------5------------------------|
E|---------------------------------|---------|---------|---------|-----------------------------------------|

E|-------------------------------------|-----------------------------------------|-------------------------------------|
B|-8--------------6--------------5-----|-----------6--------------5--------------|-8--------------6--------------5-----|
G|-----------5--------------5----------|------------------------------------5----|-----------5--------------5----------|
D|------5--------------5---------------|------7--------------7---------5---------|------5--------------5---------------|
A|-------------------------------------|-5--------------5------------------------|-------------------------------------|
E|-------------------------------------|-----------------------------------------|-------------------------------------|

E|-----------------------------------------|-------------------------------------|-----------5-------|
B|-----------3--------------5--------------|-6--------------5--------------3-----|------6----6-------|
G|------3--------------3--------------3----|-----------3--------------3----------|-7----7----7-------|
D|-5--------------5--------------5---------|------5--------------5---------------|-------------------|
A|-----------------------------------------|-------------------------------------|-------------------|
E|-----------------------------------------|-------------------------------------|-------------------|

E|-5-------|-5-------|
B|-6-------|---------|
G|---------|---------|
D|---------|---------|
A|---------|---------|
E|---------|---------|
Iron Maiden - Brave New World
Iron Maiden - Brave New World.gp3