Iron Maiden - Brave New World (3)

Iron Maiden - Brave New World (3)

Iron Maiden



Title: Brave New World
Album: Brave New World
Artist: 
Author: Iron Maiden

Track 1: Guitar 1
E|---------|---------|---------|---------|---------|---------|---------|---------|---------|
B|---------|---------|---------|---------|---------|---------|---------|---------|---------|
G|-%-------|-%-------|-%-------|-%-------|-%-------|-%-------|-%-------|-%-------|-%-------|
D|-%-------|-%-------|-%-------|-%-------|-%-------|-%-------|-%-------|-%-------|-%-------|
A|---------|---------|---------|---------|---------|---------|---------|---------|---------|
E|---------|---------|---------|---------|---------|---------|---------|---------|---------|

E|---------|---------|---------|---------|---------|---------|---------|---------|---------|
B|---------|---------|---------|---------|---------|---------|---------|---------|---------|
G|-%-------|-%-------|-%-------|-%-------|-%-------|-%-------|-%-------|-%-------|-%-------|
D|-%-------|-%-------|-%-------|-%-------|-%-------|-%-------|-%-------|-%-------|-%-------|
A|---------|---------|---------|---------|---------|---------|---------|---------|---------|
E|---------|---------|---------|---------|---------|---------|---------|---------|---------|

E|---------|---------|---------|---------|---------|---------|---------|---------|---------|
B|---------|---------|---------|---------|---------|---------|---------|---------|---------|
G|-%-------|-%-------|-%-------|-%-------|-%-------|-%-------|-%-------|-%-------|-%-------|
D|-%-------|-%-------|-%-------|-%-------|-%-------|-%-------|-%-------|-%-------|-%-------|
A|---------|---------|---------|---------|---------|---------|---------|---------|---------|
E|---------|---------|---------|---------|---------|---------|---------|---------|---------|

E|---------|---------|---------|---------|---------|---------|---------|---------|---------|
B|---------|---------|---------|---------|---------|---------|---------|---------|---------|
G|-%-------|-%-------|-%-------|-%-------|-%-------|-%-------|-%-------|-%-------|-%-------|
D|-%-------|-%-------|-%-------|-%-------|-%-------|-%-------|-%-------|-%-------|-%-------|
A|---------|---------|---------|---------|---------|---------|---------|---------|---------|
E|---------|---------|---------|---------|---------|---------|---------|---------|---------|

E|---------|---------|---------|---------|---------|---------|---------|---------|---------|
B|---------|---------|---------|---------|---------|---------|---------|---------|---------|
G|-%-------|-%-------|-%-------|-%-------|-%-------|-%-------|-%-------|-%-------|-%-------|
D|-%-------|-%-------|-%-------|-%-------|-%-------|-%-------|-%-------|-%-------|-%-------|
A|---------|---------|---------|---------|---------|---------|---------|---------|---------|
E|---------|---------|---------|---------|---------|---------|---------|---------|---------|

E|---------|---------|---------|---------|---------|---------|---------|---------|---------|
B|---------|---------|---------|---------|---------|---------|---------|---------|---------|
G|-%-------|-%-------|-%-------|-%-------|-%-------|-%-------|-%-------|-%-------|-%-------|
D|-%-------|-%-------|-%-------|-%-------|-%-------|-%-------|-%-------|-%-------|-%-------|
A|---------|---------|---------|---------|---------|---------|---------|---------|---------|
E|---------|---------|---------|---------|---------|---------|---------|---------|---------|

E|---------|---------|---------|---------|---------|---------|---------|---------|---------|
B|---------|---------|---------|---------|---------|---------|---------|---------|---------|
G|-%-------|-%-------|-%-------|-%-------|-%-------|-%-------|-%-------|-%-------|-%-------|
D|-%-------|-%-------|-%-------|-%-------|-%-------|-%-------|-%-------|-%-------|-%-------|
A|---------|---------|---------|---------|---------|---------|---------|---------|---------|
E|---------|---------|---------|---------|---------|---------|---------|---------|---------|

E|---------|---------|---------|---------|---------|---------|---------|---------|---------|
B|---------|---------|---------|---------|---------|---------|---------|---------|---------|
G|-%-------|-%-------|-%-------|-%-------|-%-------|-%-------|-%-------|-%-------|-%-------|
D|-%-------|-%-------|-%-------|-%-------|-%-------|-%-------|-%-------|-%-------|-%-------|
A|---------|---------|---------|---------|---------|---------|---------|---------|---------|
E|---------|---------|---------|---------|---------|---------|---------|---------|---------|

E|---------|---------|---------|---------|---------|---------|---------|---------|---------|
B|---------|---------|---------|---------|---------|---------|---------|---------|---------|
G|-%-------|-%-------|-%-------|-%-------|-%-------|-%-------|-%-------|-%-------|-%-------|
D|-%-------|-%-------|-%-------|-%-------|-%-------|-%-------|-%-------|-%-------|-%-------|
A|---------|---------|---------|---------|---------|---------|---------|---------|---------|
E|---------|---------|---------|---------|---------|---------|---------|---------|---------|

E|-----------------------------------------------------|-----------------------------------------------------------|
B|-----------------------------------------------------|-----------------------------------------------------------|
G|-----------------------------------------------------|-----------------------------------------------------------|
D|-----------------------------------------------------|-----------------------------------------------5-----------|
A|-5----5---5---5----5---5---5----5---5---5----5---5---|---------------------------5---7---8---7---8-------8---7---|
E|-----------------------------------------------------|-6----6---6---6----6---6-----------------------------------|

E|-----------------------------------------------------|-----------------------------------------------------|
B|-----------------------------------------------------|-----------------------------------------------------|
G|-----------------------------------------------------|-----------------------------------------------------|
D|-----------------------------------------------------|-----------------------------------------------------|
A|-----------------------------------------------------|-5----5---5---5----5---5---5----5---5---5----5---5---|
E|-8----8---8---8----8---8---8----8---8---8----8---8---|-----------------------------------------------------|

E|-----------------------------------------------------|-----------------------------------------------------------|
B|-----------------------------------------------------|-----------------------------------------------------------|
G|-----------------------------------------------------|-----------------------------------------------------------|
D|-----------------------------------------------------|-----------------------------------------------5-----------|
A|-5----5---5---5----5---5---5----5---5---5----5---5---|---------------------------5---7---8---7---8-------8---7---|
E|-----------------------------------------------------|-6----6---6---6----6---6-----------------------------------|

E|-----------------------------------------------------|-----------------------------------------------------|
B|-----------------------------------------------------|-----------------------------------------------------|
G|-----------------------------------------------------|-----------------------------------------------------|
D|-----------------------------------------------------|-----------------------------------------------------|
A|-----------------------------------------------------|-5----5---5---5----5---5---5----5---5---5----5---5---|
E|-8----8---8---8----8---8---8----8---8---8----8---8---|-----------------------------------------------------|

E|-----------------------------------------------------|-----------------------------------------------------------|
B|-----------------------------------------------------|-----------------------------------------------------------|
G|-----------------------------------------------------|-----------------------------------------------------------|
D|-----------------------------------------------------|-----------------------------------------------5-----------|
A|-5----5---5---5----5---5---5----5---5---5----5---5---|---------------------------5---7---8---7---8-------8---7---|
E|-----------------------------------------------------|-6----6---6---6----6---6-----------------------------------|

E|-----------------------------------------------------|-----------------------------------------------------|
B|-----------------------------------------------------|-----------------------------------------------------|
G|-----------------------------------------------------|-----------------------------------------------------|
D|-----------------------------------------------------|-----------------------------------------------------|
A|-----------------------------------------------------|-5----5---5---5----5---5---5----5---5---5----5---5---|
E|-8----8---8---8----8---8---8----8---8---8----8---8---|-----------------------------------------------------|

E|-----------------------------------------------------|-----------------------------------------------------------|
B|-----------------------------------------------------|-----------------------------------------------------------|
G|-----------------------------------------------------|-----------------------------------------------------------|
D|-----------------------------------------------------|-----------------------------------------------5-----------|
A|-5----5---5---5----5---5---5----5---5---5----5---5---|---------------------------5---7---8---7---8-------8---7---|
E|-----------------------------------------------------|-6----6---6---6----6---6-----------------------------------|

E|-----------------------------------------------------|-----------------------------------------------------|
B|-----------------------------------------------------|-----------------------------------------------------|
G|-----------------------------------------------------|-----------------------------------------------------|
D|-----------------------------------------------------|-----------------------------------------------------|
A|-----------------------------------------------------|-5----5---5---5----5---5---5----5---5---5----5---5---|
E|-8----8---8---8----8---8---8----8---8---8----8---8---|-----------------------------------------------------|

E|-----------------------------------------|-----------------------------------------|
B|-----------------------------------------|-----------------------------------------|
G|-----------------------------------------|-----------------------------------------|
D|-----------------------------------------|-----------------------------------------|
A|-5----5----5----5----5----5----5----5----|-1----1----1----1----1----1----1----1----|
E|-----------------------------------------|-----------------------------------------|

E|-----------------------------------------|-----------------------------------------|
B|-----------------------------------------|-----------------------------------------|
G|-----------------------------------------|-----------------------------------------|
D|-----------------------------------------|-----------------------------------------|
A|-3----3----3----3----3----3----3----3----|-5----5----5----5----5----5----5----5----|
E|-----------------------------------------|-----------------------------------------|

E|-----------------------------------------|-----------------------------------------|
B|-----------------------------------------|-----------------------------------------|
G|-----------------------------------------|-----------------------------------------|
D|-----------------------------------------|-----------------------------------------|
A|-5----5----5----5----5----5----5----5----|-1----1----1----1----1----1----1----1----|
E|-----------------------------------------|-----------------------------------------|

E|-----------------------------------------|-----------------------------------------|
B|-----------------------------------------|-----------------------------------------|
G|-----------------------------------------|-----------------------------------------|
D|-----------------------------------------|-----------------------------------------|
A|-3----3----3----3----3----3----3----3----|-5----5----5----5----5----5----5----5----|
E|-----------------------------------------|-----------------------------------------|

E|-----------------------------------------|-----------------------------------------|
B|-----------------------------------------|-----------------------------------------|
G|-----------------------------------------|-----------------------------------------|
D|-----------------------------------------|-----------------------------------------|
A|-1----1----1----1----1----1----1----1----|-3----3----3----3----3----3----3----3----|
E|-----------------------------------------|-----------------------------------------|

E|-----------------------------------------|-----------------------------------------|
B|-----------------------------------------|-----------------------------------------|
G|-----------------------------------------|-----------------------------------------|
D|-----------------------------------------|-----------------------------------------|
A|-1----1----1----1----1----1----1----1----|-5----5----5----5----5----5----5----5----|
E|-----------------------------------------|-----------------------------------------|

E|-----------------------------------------|-----------------------------------------|
B|-----------------------------------------|-----------------------------------------|
G|-----------------------------------------|-----------------------------------------|
D|-----------------------------------------|-----------------------------------------|
A|-1----1----1----1----1----1----1----1----|-3----3----3----3----3----3----3----3----|
E|-----------------------------------------|-----------------------------------------|

E|-----------------------------------------|-----------------------------------------|
B|-----------------------------------------|-----------------------------------------|
G|-----------------------------------------|-----------------------------------------|
D|-----------------------------------------|-----------------------------------------|
A|-1----1----1----1----1----1----1----1----|-5----5----5----5----5----5----5----5----|
E|-----------------------------------------|-----------------------------------------|

E|-----------------------------------------------------|-----------------------------------------------------------|
B|-----------------------------------------------------|-----------------------------------------------------------|
G|-----------------------------------------------------|-----------------------------------------------------------|
D|-----------------------------------------------------|-----------------------------------------------5-----------|
A|-5----5---5---5----5---5---5----5---5---5----5---5---|---------------------------5---7---8---7---8-------8---7---|
E|-----------------------------------------------------|-6----6---6---6----6---6-----------------------------------|

E|-----------------------------------------------------|-----------------------------------------------------|
B|-----------------------------------------------------|-----------------------------------------------------|
G|-----------------------------------------------------|-----------------------------------------------------|
D|-----------------------------------------------------|-----------------------------------------------------|
A|-----------------------------------------------------|-5----5---5---5----5---5---5----5---5---5----5---5---|
E|-8----8---8---8----8---8---8----8---8---8----8---8---|-----------------------------------------------------|

E|-----------------------------------------------------|-----------------------------------------------------------|
B|-----------------------------------------------------|-----------------------------------------------------------|
G|-----------------------------------------------------|-----------------------------------------------------------|
D|-----------------------------------------------------|-----------------------------------------------5-----------|
A|-5----5---5---5----5---5---5----5---5---5----5---5---|---------------------------5---7---8---7---8-------8---7---|
E|-----------------------------------------------------|-6----6---6---6----6---6-----------------------------------|

E|-----------------------------------------------------|-----------------------------------------------------|
B|-----------------------------------------------------|-----------------------------------------------------|
G|-----------------------------------------------------|-----------------------------------------------------|
D|-----------------------------------------------------|-----------------------------------------------------|
A|-----------------------------------------------------|-5----5---5---5----5---5---5----5---5---5----5---5---|
E|-8----8---8---8----8---8---8----8---8---8----8---8---|-----------------------------------------------------|

E|-----------------------------------------------------|-----------------------------------------------------------|
B|-----------------------------------------------------|-----------------------------------------------------------|
G|-----------------------------------------------------|-----------------------------------------------------------|
D|-----------------------------------------------------|-----------------------------------------------5-----------|
A|-5----5---5---5----5---5---5----5---5---5----5---5---|---------------------------5---7---8---7---8-------8---7---|
E|-----------------------------------------------------|-6----6---6---6----6---6-----------------------------------|

E|-----------------------------------------------------|-----------------------------------------------------|
B|-----------------------------------------------------|-----------------------------------------------------|
G|-----------------------------------------------------|-----------------------------------------------------|
D|-----------------------------------------------------|-----------------------------------------------------|
A|-----------------------------------------------------|-5----5---5---5----5---5---5----5---5---5----5---5---|
E|-8----8---8---8----8---8---8----8---8---8----8---8---|-----------------------------------------------------|

E|-----------------------------------------------------|-----------------------------------------------------------|
B|-----------------------------------------------------|-----------------------------------------------------------|
G|-----------------------------------------------------|-----------------------------------------------------------|
D|-----------------------------------------------------|-----------------------------------------------5-----------|
A|-5----5---5---5----5---5---5----5---5---5----5---5---|---------------------------5---7---8---7---8-------8---7---|
E|-----------------------------------------------------|-6----6---6---6----6---6-----------------------------------|

E|-----------------------------------------------------|-----------------------------------------------------|
B|-----------------------------------------------------|-----------------------------------------------------|
G|-----------------------------------------------------|-----------------------------------------------------|
D|-----------------------------------------------------|-----------------------------------------------------|
A|-----------------------------------------------------|-5----5---5---5----5---5---5----5---5---5----5---5---|
E|-8----8---8---8----8---8---8----8---8---8----8---8---|-----------------------------------------------------|

E|-----------------------------------------|-----------------------------------------|
B|-----------------------------------------|-----------------------------------------|
G|-----------------------------------------|-----------------------------------------|
D|-----------------------------------------|-----------------------------------------|
A|-5----5----5----5----5----5----5----5----|-1----1----1----1----1----1----1----1----|
E|-----------------------------------------|-----------------------------------------|

E|-----------------------------------------|-----------------------------------------|
B|-----------------------------------------|-----------------------------------------|
G|-----------------------------------------|-----------------------------------------|
D|-----------------------------------------|-----------------------------------------|
A|-3----3----3----3----3----3----3----3----|-5----5----5----5----5----5----5----5----|
E|-----------------------------------------|-----------------------------------------|

E|-----------------------------------------|-----------------------------------------|
B|-----------------------------------------|-----------------------------------------|
G|-----------------------------------------|-----------------------------------------|
D|-----------------------------------------|-----------------------------------------|
A|-5----5----5----5----5----5----5----5----|-1----1----1----1----1----1----1----1----|
E|-----------------------------------------|-----------------------------------------|

E|-----------------------------------------|-----------------------------------------|
B|-----------------------------------------|-----------------------------------------|
G|-----------------------------------------|-----------------------------------------|
D|-----------------------------------------|-----------------------------------------|
A|-3----3----3----3----3----3----3----3----|-5----5----5----5----5----5----5----5----|
E|-----------------------------------------|-----------------------------------------|

E|-----------------------------------------|-----------------------------------------|
B|-----------------------------------------|-----------------------------------------|
G|-----------------------------------------|-----------------------------------------|
D|-----------------------------------------|-----------------------------------------|
A|-1----1----1----1----1----1----1----1----|-3----3----3----3----3----3----3----3----|
E|-----------------------------------------|-----------------------------------------|

E|-----------------------------------------|-----------------------------------------|
B|-----------------------------------------|-----------------------------------------|
G|-----------------------------------------|-----------------------------------------|
D|-----------------------------------------|-----------------------------------------|
A|-1----1----1----1----1----1----1----1----|-5----5----5----5----5----5----5----5----|
E|-----------------------------------------|-----------------------------------------|

E|-----------------------------------------|-----------------------------------------|
B|-----------------------------------------|-----------------------------------------|
G|-----------------------------------------|-----------------------------------------|
D|-----------------------------------------|-----------------------------------------|
A|-1----1----1----1----1----1----1----1----|-3----3----3----3----3----3----3----3----|
E|-----------------------------------------|-----------------------------------------|

E|-----------------------------------------|-----------------------------------------|
B|-----------------------------------------|-----------------------------------------|
G|-----------------------------------------|-----------------------------------------|
D|-----------------------------------------|-----------------------------------------|
A|-1----1----1----1----1----1----1----1----|-5----5----5----5----5----5----5----5----|
E|-----------------------------------------|-----------------------------------------|

E|-----------------------------------------|-----------------------------------------|
B|-----------------------------------------|-----------------------------------------|
G|-----------------------------------------|-----------------------------------------|
D|-----------------------------------------|-----------------------------------------|
A|-7----7----7----7----7----7----7----7----|-3----3----3----3----3----3----3----3----|
E|-----------------------------------------|-----------------------------------------|

E|-----------------------------------------|-----------------------------------------|
B|-----------------------------------------|-----------------------------------------|
G|-----------------------------------------|-----------------------------------------|
D|-----------------------------------------|-----------------------------------------|
A|-5----5----5----5----5----5----5----5----|-7----7----7----7----7----7----7----7----|
E|-----------------------------------------|-----------------------------------------|

E|-----------------------------------------|-----------------------------------------|
B|-----------------------------------------|-----------------------------------------|
G|-----------------------------------------|-----------------------------------------|
D|-----------------------------------------|-----------------------------------------|
A|-7----7----7----7----7----7----7----7----|-3----3----3----3----3----3----3----3----|
E|-----------------------------------------|-----------------------------------------|

E|-----------------------------------------|-----------------------------------------|
B|-----------------------------------------|-----------------------------------------|
G|-----------------------------------------|-----------------------------------------|
D|-----------------------------------------|-----------------------------------------|
A|-5----5----5----5----5----5----5----5----|-7----7----7----7----7----7----7----7----|
E|-----------------------------------------|-----------------------------------------|

E|--------------------|--------------------|--------------------|---------|--------------------|
B|--------------------|--------------------|--------------------|---------|--------------------|
G|-9------11----12----|-9------11----12----|--------9-----11----|-9-------|-9------11----12----|
D|--------------------|--------------------|-12-----------------|---------|--------------------|
A|--------------------|--------------------|--------------------|---------|--------------------|
E|--------------------|--------------------|--------------------|---------|--------------------|

E|--------------------|--------------------|--------------------------------------------------------------|
B|--------------------|--------------------|-------------------------10----------10--12------10--12--13---|
G|-9------11----12----|--------9-----11----|-9---11--12--9---11--12------11--12----------12---------------|
D|--------------------|-12-----------------|--------------------------------------------------------------|
A|--------------------|--------------------|--------------------------------------------------------------|
E|--------------------|--------------------|--------------------------------------------------------------|

E|--------------------|--------------------|--------------------|---------|--------------------|
B|--------------------|--------------------|--------------------|---------|--------------------|
G|-9------11----12----|-9------11----12----|--------9-----11----|-9-------|-9------11----12----|
D|--------------------|--------------------|-12-----------------|---------|--------------------|
A|--------------------|--------------------|--------------------|---------|--------------------|
E|--------------------|--------------------|--------------------|---------|--------------------|

E|--------------------|--------------------|-----------------------------------------------------------------|
B|--------------------|--------------------|-----------------------------------------------------------------|
G|-9------11----12----|--------9-----11----|-12--11--9---11--9-------9---------------------------------------|
D|--------------------|-12-----------------|---------------------12------12--10--12--10--9---10--9-----------|
A|--------------------|--------------------|---------------------------------------------------------12--10--|
E|--------------------|--------------------|-----------------------------------------------------------------|

E|-----------------------------------------------------|-----------------------------------------------------------|
B|-----------------------------------------------------|-----------------------------------------------------------|
G|-----------------------------------------------------|-----------------------------------------------------------|
D|-----------------------------------------------------|-----------------------------------------------5-----------|
A|-5----5---5---5----5---5---5----5---5---5----5---5---|---------------------------5---7---8---7---8-------8---7---|
E|-----------------------------------------------------|-6----6---6---6----6---6-----------------------------------|

E|-----------------------------------------------------|-----------------------------------------------------|
B|-----------------------------------------------------|-----------------------------------------------------|
G|-----------------------------------------------------|-----------------------------------------------------|
D|-----------------------------------------------------|-----------------------------------------------------|
A|-----------------------------------------------------|-5----5---5---5----5---5---5----5---5---5----5---5---|
E|-8----8---8---8----8---8---8----8---8---8----8---8---|-----------------------------------------------------|

E|-----------------------------------------------------|-----------------------------------------------------------|
B|-----------------------------------------------------|-----------------------------------------------------------|
G|-----------------------------------------------------|-----------------------------------------------------------|
D|-----------------------------------------------------|-----------------------------------------------5-----------|
A|-5----5---5---5----5---5---5----5---5---5----5---5---|---------------------------5---7---8---7---8-------8---7---|
E|-----------------------------------------------------|-6----6---6---6----6---6-----------------------------------|

E|-----------------------------------------------------|-----------------------------------------------------|
B|-----------------------------------------------------|-----------------------------------------------------|
G|-----------------------------------------------------|-----------------------------------------------------|
D|-----------------------------------------------------|-----------------------------------------------------|
A|-----------------------------------------------------|-5----5---5---5----5---5---5----5---5---5----5---5---|
E|-8----8---8---8----8---8---8----8---8---8----8---8---|-----------------------------------------------------|

E|-----------------------------------------------------|-----------------------------------------------------------|
B|-----------------------------------------------------|-----------------------------------------------------------|
G|-----------------------------------------------------|-----------------------------------------------------------|
D|-----------------------------------------------------|-----------------------------------------------5-----------|
A|-5----5---5---5----5---5---5----5---5---5----5---5---|---------------------------5---7---8---7---8-------8---7---|
E|-----------------------------------------------------|-6----6---6---6----6---6-----------------------------------|

E|-----------------------------------------------------|-----------------------------------------------------|
B|-----------------------------------------------------|-----------------------------------------------------|
G|-----------------------------------------------------|-----------------------------------------------------|
D|-----------------------------------------------------|-----------------------------------------------------|
A|-----------------------------------------------------|-5----5---5---5----5---5---5----5---5---5----5---5---|
E|-8----8---8---8----8---8---8----8---8---8----8---8---|-----------------------------------------------------|

E|-----------------------------------------------------|-----------------------------------------------------------|
B|-----------------------------------------------------|-----------------------------------------------------------|
G|-----------------------------------------------------|-----------------------------------------------------------|
D|-----------------------------------------------------|-----------------------------------------------5-----------|
A|-5----5---5---5----5---5---5----5---5---5----5---5---|---------------------------5---7---8---7---8-------8---7---|
E|-----------------------------------------------------|-6----6---6---6----6---6-----------------------------------|

E|-----------------------------------------------------|---------|---------|---------|
B|-----------------------------------------------------|---------|---------|---------|
G|-----------------------------------------------------|-7-------|-7-------|-7-------|
D|-----------------------------------------------------|-7-------|-7-------|-7-------|
A|-----------------------------------------------------|-5-------|-5-------|-5-------|
E|-8----8---8---8----8---8---8----8---8---8----8---8---|---------|---------|---------|

E|---------|---------|---------|---------|---------|---------|---------|---------|---------|
B|---------|---------|---------|---------|---------|---------|---------|---------|---------|
G|-%-------|-%-------|-%-------|-%-------|-%-------|-%-------|-%-------|-%-------|-%-------|
D|-%-------|-%-------|-%-------|-%-------|-%-------|-%-------|-%-------|-%-------|-%-------|
A|---------|---------|---------|---------|---------|---------|---------|---------|---------|
E|---------|---------|---------|---------|---------|---------|---------|---------|---------|
Iron Maiden - Brave New World (3)
Iron Maiden - Brave New World (3).gp3