Iron Maiden - Brave New World Solos

Iron Maiden



Title: Brave new world solos
Album: Brave new world
Artist: Iron Maiden
Author: David Murray, Steve Harris & Bruce Dickinson

Track 1: Janick Gers
E|---------------------------------------------------------------------|------------------------------------------------------10--12--|
B|---------------------------------------------------------------------|--------------------------10--11--10------10--11--13----------|
G|-12---12---12---10------10-12-10----10-12-10----10-12-10----10-12-10-|------12--13--14--12--13--------------13----------------------|
D|---------------------12----------12----------12----------12----------|-15-----------------------------------------------------------|
A|---------------------------------------------------------------------|--------------------------------------------------------------|
E|---------------------------------------------------------------------|--------------------------------------------------------------|

E|-10------10--12--13--13--13--13--13----13-12-10----12--12--|-12---10------10-----------------------------------------------|
B|-----13-----------------------------------------10---------|----------13------13-12-11-10-----9---10--11-------------------|
G|-----------------------------------------------------------|------------------------------12--------------12---10------10--|
D|-----------------------------------------------------------|-------------------------------------------------------12------|
A|-----------------------------------------------------------|---------------------------------------------------------------|
E|-----------------------------------------------------------|---------------------------------------------------------------|

E|--------------------------------------|------------------------------------------------|
B|--------------------------------------|------------------------------------------------|
G|-12-----12----------------------------|------------------------------------------------|
D|--------------------------------------|------------------------------------------------|
A|--------------------------------------|------------------------------------------------|
E|--------------8--6--5--8--6--5--6--5--|-8---6---5---6---5--6--5--6--6--5--6--6--6------|

E|---------------------------------------------------------------|-----------------------------------12-15-12-------12-15-12----12-15-12-|
B|---------------------------------------------------------------|--------------15--16--15---16--12-----------15-15----------12----------|
G|---------------------------------------------------------------|-12--12--12------------------------------------------------------------|
D|---------------------------------------------------------------|-----------------------------------------------------------------------|
A|-----------------5---6---6--5--6--5--5--6--8--6--8---8---8-----|-----------------------------------------------------------------------|
E|-5---6---5---6-------------------------------------------------|-----------------------------------------------------------------------|

E|----12-15-12----12-15-12----12-15-12----12-15-12-----12-15-12-15--------12-15-12----12-15-12-|
B|-15----------12----------15----------15----------15--------------15--15----------15----------|
G|---------------------------------------------------------------------------------------------|
D|---------------------------------------------------------------------------------------------|
A|---------------------------------------------------------------------------------------------|
E|---------------------------------------------------------------------------------------------|

E|-15----15---13---13---12---13---15---|-15----15---13---13---12---------|-15----15---13---13---12-------------|
B|-------------------------------------|---------------------------13----|---------------------------13--------|
G|-------------------------------------|---------------------------------|--------------------------------12---|
D|-------------------------------------|---------------------------------|-------------------------------------|
A|-------------------------------------|---------------------------------|-------------------------------------|
E|-------------------------------------|---------------------------------|-------------------------------------|

E|----------------------------------------|-15----15---13---13---12---13---15---|-15----15---13---13---12---13---15---|
B|-13--15--15--15--15--15--15--15--15-----|-------------------------------------|-------------------------------------|
G|----------------------------------------|-------------------------------------|-------------------------------------|
D|----------------------------------------|-------------------------------------|-------------------------------------|
A|----------------------------------------|-------------------------------------|-------------------------------------|
E|----------------------------------------|-------------------------------------|-------------------------------------|

E|-15----15---13---13---12---13---15---|-15------|-------------------------------------------------------|
B|-------------------------------------|---------|-------------------------------------------------------|
G|-------------------------------------|---------|-9-----------------------------------------------------|
D|-------------------------------------|---------|-9-----X---X---X---X---X---X---X---X---X---X---X---X---|
A|-------------------------------------|---------|-7-----X---X---X---X---X---X---X---X---X---X---X---X---|
E|-------------------------------------|---------|-------------------------------------------------------|

E|-------------------------------------------------------|-------------------------------------------------------|
B|-------------------------------------------------------|-------------------------------------------------------|
G|-5-----------------------------------------------------|-7-----------------------------------------------------|
D|-5-----X---X---X---X---X---X---X---X---X---X---X---X---|-7-----X---X---X---X---X---X---X---X---X---X---X---X---|
A|-3-----X---X---X---X---X---X---X---X---X---X---X---X---|-5-----X---X---X---X---X---X---X---X---X---X---X---X---|
E|-------------------------------------------------------|-------------------------------------------------------|

E|-------------------------------------------------------|-------------------------------------------------------|
B|-------------------------------------------------------|-------------------------------------------------------|
G|-9-----------------------------------------------------|-9-----------------------------------------------------|
D|-9-----X---X---X---X---X---X---X---X---X---X---X---X---|-9-----X---X---X---X---X---X---X---X---X---X---X---X---|
A|-7-----X---X---X---X---X---X---X---X---X---X---X---X---|-7-----X---X---X---X---X---X---X---X---X---X---X---X---|
E|-------------------------------------------------------|-------------------------------------------------------|

E|-------------------------------------------------------|-------------------------------------------------------|
B|-------------------------------------------------------|-------------------------------------------------------|
G|-5-----------------------------------------------------|-7-----------------------------------------------------|
D|-5-----X---X---X---X---X---X---X---X---X---X---X---X---|-7-----X---X---X---X---X---X---X---X---X---X---X---X---|
A|-3-----X---X---X---X---X---X---X---X---X---X---X---X---|-5-----X---X---X---X---X---X---X---X---X---X---X---X---|
E|-------------------------------------------------------|-------------------------------------------------------|

E|-------------------------------------------------------|----------------------------|
B|-------------------------------------------------------|----------------------------|
G|-9-----------------------------------------------------|-9------11---11---12---12---|
D|-9-----X---X---X---X---X---X---X---X---X---X---X---X---|----------------------------|
A|-7-----X---X---X---X---X---X---X---X---X---X---X---X---|----------------------------|
E|-------------------------------------------------------|----------------------------|

E|----------------------------|----------------------------|---------|-----------------------------------------------------------------|
B|----------------------------|----------------------------|---------|-------------------------10----------10--12------10--12--13--13--|
G|-9------11---11---12---12---|-7------9----9----11---11---|-9-------|-9---11--12--9---11--12------11--12----------12------------------|
D|----------------------------|----------------------------|---------|-----------------------------------------------------------------|
A|----------------------------|----------------------------|---------|-----------------------------------------------------------------|
E|----------------------------|----------------------------|---------|-----------------------------------------------------------------|

E|----------------------------|----------------------------|----------------------------|
B|----------------------------|----------------------------|----------------------------|
G|-9------11---11---12---12---|-9------11---11---12---12---|-7------9----9----11---11---|
D|----------------------------|----------------------------|----------------------------|
A|----------------------------|----------------------------|----------------------------|
E|----------------------------|----------------------------|----------------------------|
Iron Maiden - Brave New World Solos
Iron Maiden - Brave New World Solos.gp3