Iron Maiden - Bring your daughter to the slaughter

Iron Maiden



Title: Bring your daughter to the slaughter solo
Album: No prayer for the dying
Artist: Iron Maiden
Author: Bruce Dickinson

Track 1: Janick guitar solo
E|---------|---------|-------------------------|------------------------|-----------------------------|
B|---------|---------|-------------------------|------------------------|-----------------------------|
G|---------|-7-------|-7-----------7-----------|-7----------------------|-7-----%----7----7-----7-----|
D|-5-------|-7-------|-7-----7-----7-----5-----|-7----5----2------2-----|-------%---------------------|
A|-5-------|-5-------|-5-----7-----5-----5-----|-5----5----2------2-----|-----------------------------|
E|-3-------|---------|-------5-----------3-----|------3----0------0-----|-----------------------------|

E|---------------------------------------------|-------------------------------|---------3---3---3---------------12------12--12--12--12--12------|
B|---------------------------------------------|-------------------------------|-----3---3---3---3-----------12----------12--12--12--12--12------|
G|-7-----7---5---7---5---4-----%---0---2---0---|---------0----2------%----2----|-4-------------------14--14----------14----------------------14--|
D|-----------------------------%---------------|-2---0---------------%---------|-----------------------------------------------------------------|
A|---------------------------------------------|-------------------------------|-----------------------------------------------------------------|
E|---------------------------------------------|-------------------------------|-----------------------------------------------------------------|

E|------12--12-------12--------12--------12---|-----12--15--13--12-----------12-15-12----------12-15-12-------------12-15-------------|
B|------12--12-------12--------12--------12---|-13------------------13-12-13----------13-12-13----------13-12-13-15-------------------|
G|-14-----------14--------14--------14--------|---------------------------------------------------------------------------%--%--%--%--|
D|--------------------------------------------|---------------------------------------------------------------------------%--%--%--%--|
A|--------------------------------------------|---------------------------------------------------------------------------------------|
E|--------------------------------------------|---------------------------------------------------------------------------------------|

E|-------14-15-17-17-15-14---------------------------------------|---------------------------------------------------------------------------------|
B|-17-17-------------------17--15--------------------------------|-----12------------------15------------------------------15----------------------|
G|---------------------------------17--16--14--------------------|-14------16--12--14--16------16--14-16-14-16-14-16-14-16----16-14-16-14-16-17-16-|
D|---------------------------------------------17--14------14----|---------------------------------------------------------------------------------|
A|-----------------------------------------------------17--------|---------------------------------------------------------------------------------|
E|---------------------------------------------------------------|---------------------------------------------------------------------------------|

E|---------------------------------------------------------------------------------|
B|-------------------12-------------------12-------------------12------------------|
G|-14-12-14-12----12----14-12----12-14-12----14-12-----12--12------14--12------12--|
D|-------------14-------------14-------------------14----------------------12------|
A|---------------------------------------------------------------------------------|
E|---------------------------------------------------------------------------------|

E|------------------------------------------12-15-12----------12-15-12----------12-|
B|-12------------------------------13-12-13----------13-12-13----------13-12-13----|
G|-----14--12--15--14--12--14--12--------------------------------------------------|
D|---------------------------------------------------------------------------------|
A|---------------------------------------------------------------------------------|
E|---------------------------------------------------------------------------------|

E|-15-12----------12-15-12----------14-17-14-----------14--17--14--15--14--12------|
B|-------13-12-13----------15-14-15----------15-14-15--------------------------15--|
G|---------------------------------------------------------------------------------|
D|---------------------------------------------------------------------------------|
A|---------------------------------------------------------------------------------|
E|---------------------------------------------------------------------------------|

E|-----------------------------------------------------------------|---------------------------0------|
B|-14--12------12--------------------------------------------------|---------------------------0------|
G|---------15------15--14--12--14--9---0---7---0---6---0---5---0---|-4---0---2---0---7----7----4------|
D|-----------------------------------------------------------------|-----------------5----5----2------|
A|-----------------------------------------------------------------|----------------------------------|
E|-----------------------------------------------------------------|----------------------------------|

E|---------|---------------|---------------|---------|---------|
B|---------|---------------|---------------|---------|---------|
G|---------|---------------|---------------|---------|-%-------|
D|---------|---------------|---------------|---------|-%-------|
A|---------|---------------|-3------5------|-7-------|---------|
E|-0-------|-3------5------|---------------|---------|---------|
Iron Maiden - Bring your daughter to the slaughter
Iron Maiden - Bring your daughter to the slaughter.gp3