Iron Maiden - Burning Ambition

Iron Maiden - Burning Ambition

Iron Maiden



Title: Burning Ambition
Album: b side de Running Free
Artist: Iron Maiden
Author: Iron Maiden

Track 1: Rhythm Guitar
E|---------|---------|---------|---------|---------|---------|---------|---------|---------|
B|---------|---------|---------|---------|---------|---------|---------|---------|---------|
G|-%-------|-%-------|-%-------|-%-------|-%-------|-%-------|-%-------|-%-------|-%-------|
D|-%-------|-%-------|-%-------|-%-------|-%-------|-%-------|-%-------|-%-------|-%-------|
A|---------|---------|---------|---------|---------|---------|---------|---------|---------|
E|---------|---------|---------|---------|---------|---------|---------|---------|---------|

E|---------|---------|---------|---------|---------|---------|---------|---------------------------------|
B|---------|---------|---------|---------|---------|---------|---------|---------------------------------|
G|-%-------|-%-------|-%-------|-%-------|-%-------|-%-------|-%-------|-7-----X----7-----7----X----X----|
D|-%-------|-%-------|-%-------|-%-------|-%-------|-%-------|-%-------|-7-----X----7-----7----X----X----|
A|---------|---------|---------|---------|---------|---------|---------|-5-----X----5-----5----X----X----|
E|---------|---------|---------|---------|---------|---------|---------|---------------------------------|

E|---------------------------------|---------------------------------|--------------------------------------------|
B|---------------------------------|---------------------------------|--------------------------------------------|
G|-9-----X----9-----9----X----X----|-5-----X----5-----5----X----X----|------------------------------------X---X---|
D|-7-----X----7-----7----X----X----|-5-----X----5-----5----X----X----|-------------------------------3----X---X---|
A|-7-----X----7-----7----X----X----|-3-----X----3-----3----X----X----|----------------3----4----5---------X---X---|
E|---------------------------------|---------------------------------|-3----4----5--------------------------------|

E|---------------------------------|---------------------------------|---------------------------------|
B|---------------------------------|---------------------------------|---------------------------------|
G|-7-----X----7-----7----X----X----|-9-----X----9-----9----X----X----|-5-----X----5-----5----X----X----|
D|-7-----X----7-----7----X----X----|-7-----X----7-----7----X----X----|-5-----X----5-----5----X----X----|
A|-5-----X----5-----5----X----X----|-7-----X----7-----7----X----X----|-3-----X----3-----3----X----X----|
E|---------------------------------|---------------------------------|---------------------------------|

E|-----------------------------------------|---------------------------------|---------------------------------|
B|-----------------------------------------|---------------------------------|---------------------------------|
G|-12---12---12---%----10---%---------%----|-7-----X----7-----7----X----X----|-9-----X----9-----9----X----X----|
D|-12---12---12---%----10---%----10---%----|-7-----X----7-----7----X----X----|-7-----X----7-----7----X----X----|
A|-10---10---10--------8---------10--------|-5-----X----5-----5----X----X----|-7-----X----7-----7----X----X----|
E|-------------------------------8---------|---------------------------------|---------------------------------|

E|---------------------------------|--------------------------------------------|---------------------------------|
B|---------------------------------|--------------------------------------------|---------------------------------|
G|-5-----X----5-----5----X----X----|------------------------------------X---X---|-7-----X----7-----7----X----X----|
D|-5-----X----5-----5----X----X----|-------------------------------3----X---X---|-7-----X----7-----7----X----X----|
A|-3-----X----3-----3----X----X----|----------------3----4----5---------X---X---|-5-----X----5-----5----X----X----|
E|---------------------------------|-3----4----5--------------------------------|---------------------------------|

E|---------------------------------|---------------------------------|-----------------------------------------|
B|---------------------------------|---------------------------------|-----------------------------------------|
G|-9-----X----9-----9----X----X----|-5-----X----5-----5----X----X----|-12---12---12---%----10---%---------%----|
D|-7-----X----7-----7----X----X----|-5-----X----5-----5----X----X----|-12---12---12---%----10---%----10---%----|
A|-7-----X----7-----7----X----X----|-3-----X----3-----3----X----X----|-10---10---10--------8---------10--------|
E|---------------------------------|---------------------------------|-------------------------------8---------|

E|---------|---------|---------|---------|---------|---------|---------|---------|---------|
B|---------|---------|---------|---------|---------|---------|---------|---------|---------|
G|---------|-%-------|-%-------|-%-------|-%-------|-%-------|-%-------|-%-------|-%-------|
D|-12------|-%-------|-%-------|-%-------|-%-------|-%-------|-%-------|-%-------|-%-------|
A|-12------|---------|---------|---------|---------|---------|---------|---------|---------|
E|-10------|---------|---------|---------|---------|---------|---------|---------|---------|

E|---------|---------|---------|---------|---------|---------|---------|---------------------------------|
B|---------|---------|---------|---------|---------|---------|---------|---------------------------------|
G|-%-------|-%-------|-%-------|-%-------|-%-------|-%-------|-%-------|-7-----X----7-----7----X----X----|
D|-%-------|-%-------|-%-------|-%-------|-%-------|-%-------|-%-------|-7-----X----7-----7----X----X----|
A|---------|---------|---------|---------|---------|---------|---------|-5-----X----5-----5----X----X----|
E|---------|---------|---------|---------|---------|---------|---------|---------------------------------|

E|---------------------------------|---------------------------------|--------------------------------------------|
B|---------------------------------|---------------------------------|--------------------------------------------|
G|-9-----X----9-----9----X----X----|-5-----X----5-----5----X----X----|------------------------------------X---X---|
D|-7-----X----7-----7----X----X----|-5-----X----5-----5----X----X----|-------------------------------3----X---X---|
A|-7-----X----7-----7----X----X----|-3-----X----3-----3----X----X----|----------------3----4----5---------X---X---|
E|---------------------------------|---------------------------------|-3----4----5--------------------------------|

E|---------------------------------|---------------------------------|---------------------------------|
B|---------------------------------|---------------------------------|---------------------------------|
G|-7-----X----7-----7----X----X----|-9-----X----9-----9----X----X----|-5-----X----5-----5----X----X----|
D|-7-----X----7-----7----X----X----|-7-----X----7-----7----X----X----|-5-----X----5-----5----X----X----|
A|-5-----X----5-----5----X----X----|-7-----X----7-----7----X----X----|-3-----X----3-----3----X----X----|
E|---------------------------------|---------------------------------|---------------------------------|

E|-----------------------------------------|---------------------------------|---------------------------------|
B|-----------------------------------------|---------------------------------|---------------------------------|
G|-12---12---12---%----10---%---------%----|-7-----X----7-----7----X----X----|-9-----X----9-----9----X----X----|
D|-12---12---12---%----10---%----10---%----|-7-----X----7-----7----X----X----|-7-----X----7-----7----X----X----|
A|-10---10---10--------8---------10--------|-5-----X----5-----5----X----X----|-7-----X----7-----7----X----X----|
E|-------------------------------8---------|---------------------------------|---------------------------------|

E|---------------------------------|--------------------------------------------|---------------------------------|
B|---------------------------------|--------------------------------------------|---------------------------------|
G|-5-----X----5-----5----X----X----|------------------------------------X---X---|-7-----X----7-----7----X----X----|
D|-5-----X----5-----5----X----X----|-------------------------------3----X---X---|-7-----X----7-----7----X----X----|
A|-3-----X----3-----3----X----X----|----------------3----4----5---------X---X---|-5-----X----5-----5----X----X----|
E|---------------------------------|-3----4----5--------------------------------|---------------------------------|

E|---------------------------------|---------------------------------|-----------------------------------------|
B|---------------------------------|---------------------------------|-----------------------------------------|
G|-9-----X----9-----9----X----X----|-5-----X----5-----5----X----X----|-12---12---12---%----10---%---------%----|
D|-7-----X----7-----7----X----X----|-5-----X----5-----5----X----X----|-12---12---12---%----10---%----10---%----|
A|-7-----X----7-----7----X----X----|-3-----X----3-----3----X----X----|-10---10---10--------8---------10--------|
E|---------------------------------|---------------------------------|-------------------------------8---------|

E|-------------------|---------|-------------------------|-------------------------|
B|-------------------|---------|-------------------------|-------------------------|
G|------%-------%----|-%-------|-------------------------|-------------------------|
D|-12---%-------%----|-%-------|-7-----7-----7-----7-----|-7-----7-----7-----7-----|
A|-12----------------|---------|-5-----5-----5-----5-----|-5-----5-----5-----5-----|
E|-10----------------|---------|-------------------------|-------------------------|

E|-------------------------|-------------------------|-------------------------|-------------------------|
B|-------------------------|-------------------------|-------------------------|-------------------------|
G|-------------------------|-------------------------|-------------------------|-------------------------|
D|-5-----5-----5-----5-----|-5-----5-----5-----5-----|-7-----7-----7-----7-----|-7-----7-----7-----7-----|
A|-3-----3-----3-----3-----|-2-----2-----2-----2-----|-5-----5-----5-----5-----|-5-----5-----5-----5-----|
E|-------------------------|-------------------------|-------------------------|-------------------------|

E|-------------------------|-------------------------|-------------------------|-------------------------|
B|-------------------------|-------------------------|-------------------------|-------------------------|
G|-------------------------|-------------------------|-------------------------|-------------------------|
D|-5-----5-----5-----5-----|-5-----5-----5-----5-----|-7-----7-----7-----7-----|-7-----7-----7-----7-----|
A|-3-----3-----3-----3-----|-2-----2-----2-----2-----|-5-----5-----5-----5-----|-5-----5-----5-----5-----|
E|-------------------------|-------------------------|-------------------------|-------------------------|

E|-------------------------|-------------------------|-------------------------|-------------------------|
B|-------------------------|-------------------------|-------------------------|-------------------------|
G|-------------------------|-------------------------|-------------------------|-------------------------|
D|-5-----5-----5-----5-----|-5-----5-----5-----5-----|-7-----7-----7-----7-----|-7-----7-----7-----7-----|
A|-3-----3-----3-----3-----|-2-----2-----2-----2-----|-5-----5-----5-----5-----|-5-----5-----5-----5-----|
E|-------------------------|-------------------------|-------------------------|-------------------------|

E|-------------------------|-------------------------|---------|---------|---------|
B|-------------------------|-------------------------|---------|---------|---------|
G|-------------------------|-------------------------|-7-------|-0-------|-5-------|
D|-5-----5-----5-----5-----|-5-----5-----5-----5-----|-7-------|-0-------|-5-------|
A|-3-----3-----3-----3-----|-2-----2-----2-----2-----|-5-------|---------|-3-------|
E|-------------------------|-------------------------|---------|-3-------|---------|

E|---------|---------|---------|---------|---------|----------------------|----------------------|
B|---------|---------|---------|---------|---------|----------------------|----------------------|
G|-7-------|-7-------|-0-------|-5-------|-7-------|-7-------7----X---X---|-9-------9----X---X---|
D|-7-------|-7-------|-0-------|-5-------|-7-------|-7-------7----X---X---|-7-------7----X---X---|
A|-5-------|-5-------|---------|-3-------|-5-------|-5-------5----X---X---|-7-------7----X---X---|
E|---------|---------|-3-------|---------|---------|----------------------|----------------------|

E|----------------------|-----------------------------------------|---------------------------------|
B|----------------------|-----------------------------------------|---------------------------------|
G|-5-------5----X---X---|-12---12---12---%----10---%---------%----|-7-----X----7-----7----X----X----|
D|-5-------5----X---X---|-12---12---12---%----10---%----10---%----|-7-----X----7-----7----X----X----|
A|-3-------3----X---X---|-10---10---10--------8---------10--------|-5-----X----5-----5----X----X----|
E|----------------------|-------------------------------8---------|---------------------------------|

E|---------------------------------|---------------------------------|--------------------------------------------|
B|---------------------------------|---------------------------------|--------------------------------------------|
G|-9-----X----9-----9----X----X----|-5-----X----5-----5----X----X----|------------------------------------X---X---|
D|-7-----X----7-----7----X----X----|-5-----X----5-----5----X----X----|-------------------------------3----X---X---|
A|-7-----X----7-----7----X----X----|-3-----X----3-----3----X----X----|----------------3----4----5---------X---X---|
E|---------------------------------|---------------------------------|-3----4----5--------------------------------|

E|---------------------------------|---------------------------------|---------------------------------|
B|---------------------------------|---------------------------------|---------------------------------|
G|-7-----X----7-----7----X----X----|-9-----X----9-----9----X----X----|-5-----X----5-----5----X----X----|
D|-7-----X----7-----7----X----X----|-7-----X----7-----7----X----X----|-5-----X----5-----5----X----X----|
A|-5-----X----5-----5----X----X----|-7-----X----7-----7----X----X----|-3-----X----3-----3----X----X----|
E|---------------------------------|---------------------------------|---------------------------------|

E|-----------------------------------------|---------------------------------|---------------------------------|
B|-----------------------------------------|---------------------------------|---------------------------------|
G|-12---12---12---%----10---%---------%----|-7-----X----7-----7----X----X----|-9-----X----9-----9----X----X----|
D|-12---12---12---%----10---%----10---%----|-7-----X----7-----7----X----X----|-7-----X----7-----7----X----X----|
A|-10---10---10--------8---------10--------|-5-----X----5-----5----X----X----|-7-----X----7-----7----X----X----|
E|-------------------------------8---------|---------------------------------|---------------------------------|

E|---------------------------------|--------------------------------------------|---------------------------------|
B|---------------------------------|--------------------------------------------|---------------------------------|
G|-5-----X----5-----5----X----X----|------------------------------------X---X---|-7-----X----7-----7----X----X----|
D|-5-----X----5-----5----X----X----|-------------------------------3----X---X---|-7-----X----7-----7----X----X----|
A|-3-----X----3-----3----X----X----|----------------3----4----5---------X---X---|-5-----X----5-----5----X----X----|
E|---------------------------------|-3----4----5--------------------------------|---------------------------------|

E|---------------------------------|---------------------------------|-----------------------------------------|
B|---------------------------------|---------------------------------|-----------------------------------------|
G|-9-----X----9-----9----X----X----|-5-----X----5-----5----X----X----|-12---12---12---%----10---%---------%----|
D|-7-----X----7-----7----X----X----|-5-----X----5-----5----X----X----|-12---12---12---%----10---%----10---%----|
A|-7-----X----7-----7----X----X----|-3-----X----3-----3----X----X----|-10---10---10--------8---------10--------|
E|---------------------------------|---------------------------------|-------------------------------8---------|

E|---------|---------|---------|---------|---------|---------|---------|---------|---------|
B|---------|---------|---------|---------|---------|---------|---------|---------|---------|
G|-%-------|-%-------|-%-------|-%-------|-%-------|-%-------|-%-------|-%-------|-%-------|
D|-%-------|-%-------|-%-------|-%-------|-%-------|-%-------|-%-------|-%-------|-%-------|
A|---------|---------|---------|---------|---------|---------|---------|---------|---------|
E|---------|---------|---------|---------|---------|---------|---------|---------|---------|

E|---------|---------|---------|---------|---------|---------|---------|---------|
B|---------|---------|---------|---------|---------|---------|---------|---------|
G|-%-------|-%-------|-%-------|-%-------|-%-------|-%-------|-%-------|-%-------|
D|-%-------|-%-------|-%-------|-%-------|-%-------|-%-------|-%-------|-%-------|
A|---------|---------|---------|---------|---------|---------|---------|---------|
E|---------|---------|---------|---------|---------|---------|---------|---------|
Iron Maiden - Burning Ambition
Iron Maiden - Burning Ambition.gp3