Iron Maiden - Chains Of Misery

Iron Maiden



Title: Chains Of Misery
Album: Fear Of The Dark
Artist: Iron Maiden
Author: 

Track 1: Guitar I
E|-----------------------------------------|-----------------------------------------|
B|-----------------------------------------|-----------------------------------------|
G|-----------------------------------------|-----------------------------------------|
D|-----------------------------------------|-----------------------------------------|
A|-----------------------------------------|-----------------------------------------|
E|-0----0----0----0----0----0----0----0----|-0----0----0----0----0----0----0----0----|

E|-----------------------------------------|-------------------------|-----------------------------|
B|-----------------------------------------|-------------------------|-----------------------------|
G|-----------------------------------------|-------------------------|-----------------------------|
D|-----------------------------------------|------------5-----5------|-5----9-----7-----------7----|
A|-----------------------------------------|------------2-----3------|-3----7-----5-----------5----|
E|-0----0----0----0----0----0----0----0----|-0-----0-----------------|-------------------0---------|

E|---------------------------------|-------------------------|-----------------------------|
B|---------------------------------|-------------------------|-----------------------------|
G|---------------------------------|-------------------------|-----------------------------|
D|-7----7--------------------------|------------5-----5------|-5----9-----7-----------7----|
A|-5----4-----------3----0----2----|------------2-----3------|-3----7-----5-----------5----|
E|-------------0-------------------|-0-----0-----------------|-------------------0---------|

E|---------------------------------|-------------------------|-----------------------------|
B|---------------------------------|-------------------------|-----------------------------|
G|---------------------------------|-------------------------|-----------------------------|
D|-7----7--------------------------|------------5-----5------|-5----9-----7-----------7----|
A|-5----4-----------3----0----2----|------------2-----3------|-3----7-----5-----------5----|
E|-------------0-------------------|-0-----0-----------------|-------------------0---------|

E|---------------------------------|-------------------------|------------------------|
B|---------------------------------|-------------------------|------8-----------------|
G|---------------------------------|-------------------------|------7-----------------|
D|-7----7--------------------------|------------5-----5------|-5----5-----7------7----|
A|-5----4-----------3----0----2----|------------2-----3------|-3----------5------5----|
E|-------------0-------------------|-0-----0-----------------|------------------------|

E|---------|-----------------------------|------------------------|-------------------|
B|---------|-----------------------------|------------------------|-------------------|
G|---------|-----------------------------|------------------------|-------------------|
D|-7-------|-9--------------9-----7------|-7------7-----7----7----|-7----5-------5----|
A|-5-------|-7--------------7-----5------|-5------4-----4----4----|-4----3-------3----|
E|---------|------0----0-----------------|------------------------|-------------------|

E|-----------------------------|------------------------|-------------------|-----------------------------|
B|-----------------------------|------------------------|-------------------|-----------------------------|
G|-----------------------------|------------------------|-------------------|-----------------------------|
D|-9--------------9-----7------|-7------7-----7----7----|-7----5-------5----|-9--------------9-----7------|
A|-7--------------7-----5------|-5------4-----4----4----|-4----3-------3----|-7--------------7-----5------|
E|------0----0-----------------|------------------------|-------------------|------0----0-----------------|

E|------------------------|-------------------|-----------------------------|------------------------|
B|------------------------|-------------------|-----------------------------|------------------------|
G|------------------------|-------------------|-----------------------------|------------------------|
D|-7------7-----7----7----|-7----5-------5----|-9--------------9-----7------|-7------7-----7----7----|
A|-5------4-----4----4----|-4----3-------3----|-7--------------7-----5------|-5------4-----4----4----|
E|------------------------|-------------------|------0----0-----------------|------------------------|

E|-------------------|----------------2------------------------|------2-----------------------------3----|
B|-------------------|------2----3---------3----2---------2----|-3---------3----2---------3----5---------|
G|-------------------|-4-----------------------------4---------|---------------------5-------------------|
D|-7----5-------5----|-----------------------------------------|-----------------------------------------|
A|-4----3-------3----|-----------------------------------------|-----------------------------------------|
E|-------------------|-----------------------------------------|-----------------------------------------|

E|--------------------------3--------------|----------------3------------------------|
B|-5----3---------3----5---------5----3----|------3----5---------5----3---------3----|
G|-----------5-----------------------------|-6-----------------------------6---------|
D|-----------------------------------------|-----------------------------------------|
A|-----------------------------------------|-----------------------------------------|
E|-----------------------------------------|-----------------------------------------|

E|------3-----------------------------5----|--------------------------5--------------|
B|-5---------5----3---------5----7---------|-7----5---------5----7---------7---------|
G|---------------------7-------------------|-----------8------------------------8----|
D|-----------------------------------------|-----------------------------------------|
A|-----------------------------------------|-----------------------------------------|
E|-----------------------------------------|-----------------------------------------|

E|-------------------------|-----------------------------|---------------------------------|
B|-------------------------|-----------------------------|---------------------------------|
G|-------------------------|-----------------------------|---------------------------------|
D|------------5-----5------|-5----9-----7-----------7----|-7----7--------------------------|
A|------------2-----3------|-3----7-----5-----------5----|-5----4-----------3----0----2----|
E|-0-----0-----------------|-------------------0---------|-------------0-------------------|

E|-------------------------|------------3------3----|-3-----------------------|-------------------------|
B|-------------------------|------------3------3----|-3-----------------------|-------------------------|
G|-------------------------|------------0------0----|-0-----------------------|-------------------------|
D|------------5-----5------|-5----9-----0------0----|-0-----7------2----------|------------5-----5------|
A|------------2-----3------|-3----7-----X-----------|-------5------0----------|------------2-----3------|
E|-0-----0-----------------|------------3------3----|-3------------------0----|-0-----0-----------------|

E|-----------------------------|---------------------------------|-------------------------|
B|-----------------------------|---------------------------------|-------------------------|
G|-----------------------------|---------------------------------|-------------------------|
D|-5----9-----7-----------7----|-7----7--------------------------|------------5-----5------|
A|-3----7-----5-----------5----|-5----4-----------3----0----2----|------------2-----3------|
E|-------------------0---------|-------------0-------------------|-0-----0-----------------|

E|------------3------3----|-3-----------------------|-----------------------------|
B|------------3------3----|-3-----------------------|-----------------------------|
G|------------0------0----|-0-----------------------|-----------------------------|
D|-5----9-----0------0----|-0-----7------2----------|-9--------------9-----7------|
A|-3----7-----------------|-------5------0----------|-7--------------7-----5------|
E|------------3------3----|-3------------------0----|------0----0-----------------|

E|------------------------|-------------------|-----------------------------|------------------------|
B|------------------------|-------------------|-----------------------------|------------------------|
G|------------------------|-------------------|-----------------------------|------------------------|
D|-7------7-----7----7----|-7----5-------5----|-9--------------9-----7------|-7------7-----7----7----|
A|-5------4-----4----4----|-4----3-------3----|-7--------------7-----5------|-5------4-----4----4----|
E|------------------------|-------------------|------0----0-----------------|------------------------|

E|-------------------|-----------------------------|------------------------|-------------------|
B|-------------------|-----------------------------|------------------------|-------------------|
G|-------------------|-----------------------------|------------------------|-------------------|
D|-7----5-------5----|-9--------------9-----7------|-7------7-----7----7----|-7----5-------5----|
A|-4----3-------3----|-7--------------7-----5------|-5------4-----4----4----|-4----3-------3----|
E|-------------------|------0----0-----------------|------------------------|-------------------|

E|-----------------------------|------------------------|-------------------|-----------------------------|
B|-----------------------------|------------------------|-------------------|-----------------------------|
G|-----------------------------|------------------------|-------------------|-----------------------------|
D|-9--------------9-----7------|-7------7-----7----7----|-7----5-------5----|-9--------------9-----7------|
A|-7--------------7-----5------|-5------4-----4----4----|-4----3-------3----|-7--------------7-----5------|
E|------0----0-----------------|------------------------|-------------------|------0----0-----------------|

E|------------------------|-------------------|-----------------------------|------------------------|
B|------------------------|-------------------|-----------------------------|------------------------|
G|------------------------|-------------------|-----------------------------|------------------------|
D|-7------7-----7----7----|-7----5-------5----|-9--------------9-----7------|-7------7-----7----7----|
A|-5------4-----4----4----|-4----3-------3----|-7--------------7-----5------|-5------4-----4----4----|
E|------------------------|-------------------|------0----0-----------------|------------------------|

E|-------------------|----------------2------------------------|------2-----------------------------3----|
B|-------------------|------2----3---------3----2---------2----|-3---------3----2---------3----5---------|
G|-------------------|-4-----------------------------4---------|---------------------5-------------------|
D|-7----5-------5----|-----------------------------------------|-----------------------------------------|
A|-4----3-------3----|-----------------------------------------|-----------------------------------------|
E|-------------------|-----------------------------------------|-----------------------------------------|

E|--------------------------3--------------|----------------3------------------------|
B|-5----3---------3----5---------5----3----|------3----5---------5----3---------3----|
G|-----------5-----------------------------|-6-----------------------------6---------|
D|-----------------------------------------|-----------------------------------------|
A|-----------------------------------------|-----------------------------------------|
E|-----------------------------------------|-----------------------------------------|

E|------3-----------------------------5----|--------------------------5--------------|
B|-5---------5----3---------5----7---------|-7----5---------5----7---------7---------|
G|---------------------7-------------------|-----------8------------------------8----|
D|-----------------------------------------|-----------------------------------------|
A|-----------------------------------------|-----------------------------------------|
E|-----------------------------------------|-----------------------------------------|

E|-------------------------|-----------------------------|---------------------------------|
B|-------------------------|-----------------------------|---------------------------------|
G|-------------------------|-----------------------------|---------------------------------|
D|------------5-----5------|-5----9-----7-----------7----|-7----7--------------------------|
A|------------2-----3------|-3----7-----5-----------5----|-5----4-----------3----0----2----|
E|-0-----0-----------------|-------------------0---------|-------------0-------------------|

E|-------------------------|------------3------3----|-3-----------------------|-------------------------|
B|-------------------------|------------3------3----|-3-----------------------|-------------------------|
G|-------------------------|------------0------0----|-0-----------------------|-------------------------|
D|------------5-----5------|-5----9-----0------0----|-0-----7------2----------|------------5-----5------|
A|------------2-----3------|-3----7-----X-----------|-------5------0----------|------------2-----3------|
E|-0-----0-----------------|------------3------3----|-3------------------0----|-0-----0-----------------|

E|-----------------------------|---------------------------------|-------------------------|
B|-----------------------------|---------------------------------|-------------------------|
G|-----------------------------|---------------------------------|-------------------------|
D|-5----9-----7-----------7----|-7----7--------------------------|------------5-----5------|
A|-3----7-----5-----------5----|-5----4-----------3----0----2----|------------2-----3------|
E|-------------------0---------|-------------0-------------------|-0-----0-----------------|

E|------------3------3----|-3-----------------------|-------------------------|-----------------------------|
B|------------3------3----|-3-----------------------|-------------------------|-----------------------------|
G|------------0------0----|-0-----------------------|-------------------------|-----------------------------|
D|-5----9-----0------0----|-0-----7------2----------|-5-----5----5-----5------|-5----9-----7-----------7----|
A|-3----7-----X-----------|-------5------0----------|-3-----3----2-----3------|-3----7-----5-----------5----|
E|------------3------3----|-3------------------0----|-------------------------|-------------------0---------|

E|---------------------------------|-------------------------|------------3------3----|
B|---------------------------------|-------------------------|------------3------3----|
G|---------------------------------|-------------------------|------------0------0----|
D|-7----7--------------------------|------------5-----5------|-5----9-----0------0----|
A|-5----4-----------3----0----2----|------------2-----3------|-3----7-----X-----------|
E|-------------0-------------------|-0-----0-----------------|------------3------3----|

E|-3-----------------------|-------------------------|-----------------------------|
B|-3-----------------------|-------------------------|-----------------------------|
G|-0-----------------------|-------------------------|-----------------------------|
D|-0-----7------2----------|------------5-----5------|-5----9-----7-----------7----|
A|-------5------0----------|------------2-----3------|-3----7-----5-----------5----|
E|-3------------------0----|-0-----0-----------------|-------------------0---------|

E|---------------------------------|-------------------------|------------3------3----|
B|---------------------------------|-------------------------|------------3------3----|
G|---------------------------------|-------------------------|------------0------0----|
D|-7----7--------------------------|------------5-----5------|-5----9-----0------0----|
A|-5----4-----------3----0----2----|------------2-----3------|-3----7-----X-----------|
E|-------------0-------------------|-0-----0-----------------|------------3------3----|

E|-3-----------------------|-----------------0-------------------------------0---------------|
B|-3-----------------------|---------3-----------3-------3-----------3-----------3-------3---|
G|-0-----------------------|-----2-------2-----------2-----------0-------0-----------0-------|
D|-0------------9-----7----|-0---------------------------------------------------------------|
A|--------------7-----5----|-5-------------------------------1-------------------------------|
E|-3-----0-----------------|-----------------------------------------------------------------|

E|-----------------0-------------------------------0---------------|-----------------0-------------------------------0---------------|
B|---------3-----------3-------3-----------3-----------3-------3---|---------3-----------3-------3-----------3-----------3-------3---|
G|-----0-------0-----------0-----------0-------0-----------0-------|-----2-------2-----------2-----------0-------0-----------0-------|
D|-----------------------------------------------------------------|-0---------------------------------------------------------------|
A|-2-------------------------------3-------------------------------|---------------------------------1-------------------------------|
E|-----------------------------------------------------------------|-----------------------------------------------------------------|

E|-----------------0-------------------------------0---------------|-----------------0-------------------------------0---------------|
B|---------3-----------3-------3-----------3-----------3-------3---|---------3-----------3-------3-----------3-----------3-------3---|
G|-----0-------0-----------0-----------0-------0-----------0-------|-----2-------2-----------2-----------0-------0-----------0-------|
D|-----------------------------------------------------------------|-0---------------------------------------------------------------|
A|-2-------------------------------3-------------------------------|---------------------------------1-------------------------------|
E|-----------------------------------------------------------------|-----------------------------------------------------------------|

E|-----------------0-------------------------------0---------------|-----------------0-------------------------------0---------------|
B|---------3-----------3-------3-----------3-----------3-------3---|---------3-----------3-------3-----------3-----------3-------3---|
G|-----0-------0-----------0-----------0-------0-----------0-------|-----2-------2-----------2-----------0-------0-----------0-------|
D|-----------------------------------------------------------------|-0---------------------------------------------------------------|
A|-2-------------------------------3-------------------------------|---------------------------------1-------------------------------|
E|-----------------------------------------------------------------|-----------------------------------------------------------------|

E|-----------------0-------------------------------0---------------|---------|-------------------|
B|---------3-----------3-------3-----------3-----------3-------3---|---------|-------------------|
G|-----0-------0-----------0-----------0-------0-----------0-------|---------|-------------------|
D|-----------------------------------------------------------------|-7-------|-7----9-------9----|
A|-2-------------------------------3-------------------------------|-5-------|-5----7-------7----|
E|-----------------------------------------------------------------|---------|-------------------|

E|------------------------|---------|---------------|-------------------------|---------|
B|------------------------|---------|---------------|-------------------------|---------|
G|------------------------|---------|---------------|-------------------------|---------|
D|-9------9----3-----5----|-5-------|-5------3------|-3------------5-----7----|-7-------|
A|-7------7----1-----3----|-3-------|-3------1------|-1-----3------3-----5----|-5-------|
E|------------------------|---------|---------------|-------1-----------------|---------|

E|-------------------|------------------------|---------|---------------|-------------------------|
B|-------------------|------------------------|---------|--------3------|-3-----------------------|
G|-------------------|------------------------|---------|--------3------|-3-----------------------|
D|-7----9-------9----|-9------9----3-----5----|-5-------|-5------3------|-3-----3------5-----7----|
A|-5----7-------7----|-7------7----1-----3----|-3-------|-3------1------|-1-----3------3-----5----|
E|-------------------|------------------------|---------|---------------|-------1-----------------|

E|---------|-------------------|------------------------|---------|---------------|
B|---------|-------------------|------------------------|---------|---------------|
G|---------|-------------------|------------------------|---------|---------------|
D|-7-------|-7----9-------9----|-9------9----3-----5----|-5-------|-5------3------|
A|-5-------|-5----7-------7----|-7------7----1-----3----|-3-------|-3------1------|
E|---------|-------------------|------------------------|---------|---------------|

E|-------------------------|---------|------------------------|------------------------|
B|-------------------------|---------|------------------------|------------------------|
G|-------------------------|---------|------------------------|------------------------|
D|-3------------5-----7----|-7-------|-7----9-----10-----10---|-10-----10---2-----3----|
A|-1-----3------3-----5----|-5-------|-5----7-----8------8----|-8------8----0-----1----|
E|-------1-----------------|---------|------------------------|------------------------|

E|---------|---------------|---------|-------------------------|-----------------------------|
B|---------|---------------|---------|-------------------------|-----------------------------|
G|---------|---------------|---------|-------------------------|-----------------------------|
D|-3-------|-3------5------|-5-------|------------5-----5------|-5----9-----7-----------7----|
A|-1-------|-1------3------|-3-------|------------2-----3------|-3----7-----5-----------5----|
E|---------|---------------|---------|-0-----0-----------------|-------------------0---------|

E|---------------------------------|-------------------------|------------3------3----|
B|---------------------------------|-------------------------|------------3------3----|
G|---------------------------------|-------------------------|------------0------0----|
D|-7----7--------------------------|------------5-----5------|-5----9-----0------0----|
A|-5----4-----------3----0----2----|------------2-----3------|-3----7-----X-----------|
E|-------------0-------------------|-0-----0-----------------|------------3------3----|

E|-3-----------------------|-------------------------|-----------------------------|
B|-3-----------------------|-------------------------|-----------------------------|
G|-0-----------------------|-------------------------|-----------------------------|
D|-0-----7------2----------|------------5-----5------|-5----9-----7-----------7----|
A|-------5------0----------|------------2-----3------|-3----7-----5-----------5----|
E|-3------------------0----|-0-----0-----------------|-------------------0---------|

E|---------------------------------|-------------------------|------------3------3----|
B|---------------------------------|-------------------------|------------3------3----|
G|---------------------------------|-------------------------|------------0------0----|
D|-7----7--------------------------|------------5-----5------|-5----9-----0------0----|
A|-5----4-----------3----0----2----|------------2-----3------|-3----7-----------------|
E|-------------0-------------------|-0-----0-----------------|------------3------3----|

E|-3-----------------------|-------------------------|-----------------------------|
B|-3-----------------------|-------------------------|-----------------------------|
G|-0-----------------------|-------------------------|-----------------------------|
D|-0-----7------2----------|------------5-----5------|-5----9-----7-----------7----|
A|-------5------0----------|------------2-----3------|-3----7-----5-----------5----|
E|-3------------------0----|-0-----0-----------------|-------------------0---------|

E|---------------------------------|-------------------------|------------3------3----|
B|---------------------------------|-------------------------|------------3------3----|
G|---------------------------------|-------------------------|------------0------0----|
D|-7----7--------------------------|------------5-----5------|-5----9-----0------0----|
A|-5----4-----------3----0----2----|------------2-----3------|-3----7-----------------|
E|-------------0-------------------|-0-----0-----------------|------------3------3----|

E|-3-----------------------|-------------------------|-----------------------------|
B|-3-----------------------|-------------------------|-----------------------------|
G|-0-----------------------|-------------------------|-----------------------------|
D|-0-----7------2----------|------------5-----5------|-5----9-----7-----------7----|
A|-------5------0----------|------------2-----3------|-3----7-----5-----------5----|
E|-3------------------0----|-0-----0-----------------|-------------------0---------|

E|---------------------------------|-------------------------|------------3----3-----3-----|
B|---------------------------------|-------------------------|------------3----3-----3-----|
G|---------------------------------|-------------------------|------------0----0-----0-----|
D|-7----7--------------------------|------------5-----5------|-5----9-----0----0-----0-----|
A|-5----4-----------3----0----2----|------------2-----3------|-3----7-----X----X-----X-----|
E|-------------0-------------------|-0-----0-----------------|------------3----3-----3-----|

E|-------------0------|-0-------|-0-------|-0-------|-0-------|-0------------------|
B|-------------0------|-0-------|-0-------|-0-------|-0-------|-0------------------|
G|-7-----2-----9------|-9-------|-9-------|-9-------|-9-------|-9------9-----%-----|
D|-7-----2-----9------|-9-------|-9-------|-9-------|-9-------|-9------9-----%-----|
A|-5-----0-----7------|-7-------|-7-------|-7-------|-7-------|-7------7-----------|
E|-------------0------|-0-------|-0-------|-0-------|-0-------|-0------------------|
Iron Maiden - Chains Of Misery
Iron Maiden - Chains Of Misery.gp3