Iron Maiden - Charlotte The Harlot

Iron Maiden



Title: Charlotte The Harlot
Album: Iron Maiden
Artist: Iron Maiden
Author: Dave Murray

Track 1: Guitar 1
E|---------|---------|---------|---------|---------|---------|-5-----5----------3---------2---------0----|
B|---------|---------|---------|---------|---------|---------|-------------------------------------------|
G|-%-------|-%-------|-%-------|-%-------|-%-------|-%-------|----------%----%-------%---------%---------|
D|-%-------|-%-------|-%-------|-%-------|-%-------|-%-------|----------%----%-------%---------%---------|
A|---------|---------|---------|---------|---------|---------|-------------------------------------------|
E|---------|---------|---------|---------|---------|---------|-------------------------------------------|

E|-------------------------------------|-------------------------------------|------0---------0----0------0-------|
B|------3---------3----3-----3----3----|-3-----3----3---------3---------3----|------------------------------------|
G|-%---------%-------------------------|-----------------%---------%---------|-%---------%--------------------%---|
D|-%---------%-------------------------|-----------------%---------%---------|-%---------%--------------------%---|
A|-------------------------------------|-------------------------------------|------------------------------------|
E|-------------------------------------|-------------------------------------|------------------------------------|

E|-------------------------------------|------0---------0----0------0-------|-5-----5----------3---------2---------3----|
B|-3-----3----3---------3---------3----|------------------------------------|-------------------------------------------|
G|-----------------%---------%---------|-%---------%--------------------%---|----------%----%-------%---------%---------|
D|-----------------%---------%---------|-%---------%--------------------%---|----------%----%-------%---------%---------|
A|-------------------------------------|------------------------------------|-------------------------------------------|
E|-------------------------------------|------------------------------------|-------------------------------------------|

E|-5-----5----------3---------2---------3----|-5-----5----------3---------2---------5----|
B|-------------------------------------------|-------------------------------------------|
G|----------%----%-------%---------%---------|----------%----%-------%---------%---------|
D|----------%----%-------%---------%---------|----------%----%-------%---------%---------|
A|-------------------------------------------|-------------------------------------------|
E|-------------------------------------------|-------------------------------------------|

E|------3----2-----2-----0------|-0------0-------3-----3------------|----------------0------|
B|-----------------------0------|-0------0-------3-----3-------3----|-3------3-------0------|
G|-%------------------%---------|------------%---0-----0----%--2----|-2------2---%----------|
D|-%------------------%--2------|-2------2---%--------------%--0----|-0------0---%---2------|
A|------------------------------|-----------------------------------|-----------------------|
E|------------------------------|-----------------------------------|-----------------------|

E|-0------0-------3-----3------------|------------------------------------|-------------------------------------|
B|-0------0-------3-----3-------3----|-3------3-------0----0---------0----|------0---------3---------3----------|
G|------------%---0-----0----%--2----|-2------2---%-------------2---------|-%---------%----0----%----0-----2----|
D|-2------2---%--------------%--0----|-0------0---%---2----2----2----2----|-%----2----%---------%----------0----|
A|-----------------------------------|------------------------------------|-------------------------------------|
E|-----------------------------------|------------------------------------|-------------------------------------|

E|------------------------------------|-------------------------------------|------------------------------------|
B|----------------0----0---------0----|------0---------3---------3----------|----------------0----0---------0----|
G|-2------2---%-------------2---------|-%---------%----0----%----0-----2----|-2------2---%-------------2---------|
D|-0------0---%---2----2----2----2----|-%----2----%---------%----------0----|-0------0---%---2----2----2----2----|
A|------------------------------------|-------------------------------------|------------------------------------|
E|------------------------------------|-------------------------------------|------------------------------------|

E|-------------------------------------|------------------------------------|-------------------------------------|
B|------0---------3---------3----------|----------------0----0---------0----|------0---------3---------3----------|
G|-%---------%----0----%----0-----2----|-2------2---%-------------2---------|-%---------%----0----%----0-----2----|
D|-%----2----%---------%----------0----|-0------0---%---2----2----2----2----|-%----2----%---------%----------0----|
A|-------------------------------------|------------------------------------|-------------------------------------|
E|-------------------------------------|------------------------------------|-------------------------------------|

E|------------------------------------|-------------------------------------|------------------------------------|
B|----------------0----0---------0----|------0---------3---------3----------|----------------0----0---------0----|
G|-2------2---%-------------2---------|-%---------%----0----%----0-----2----|-2------2---%-------------2---------|
D|-0------0---%---2----2----2----2----|-%----2----%---------%----------0----|-0------0---%---2----2----2----2----|
A|------------------------------------|-------------------------------------|------------------------------------|
E|------------------------------------|-------------------------------------|------------------------------------|

E|-------------------------------------|------------------------------------|-------------------------------------|
B|------0---------3---------3----------|----------------0----0---------0----|------0---------3---------3----------|
G|-%---------%----0----%----0-----2----|-2------2---%-------------2---------|-%---------%----0----%----0-----2----|
D|-%----2----%---------%----------0----|-0------0---%---2----2----2----2----|-%----2----%---------%----------0----|
A|-------------------------------------|------------------------------------|-------------------------------------|
E|-------------------------------------|------------------------------------|-------------------------------------|

E|------------------------------------|-------------------------------------|------------------------------------|
B|----------------0----0---------0----|------0---------3---------3----------|----------------0----0---------0----|
G|-2------2---%-------------2---------|-%---------%----0----%----0-----2----|-2------2---%-------------2---------|
D|-0------0---%---2----2----2----2----|-%----2----%---------%----------0----|-0------0---%---2----2----0----2----|
A|------------------------------------|-------------------------------------|------------------------------------|
E|------------------------------------|-------------------------------------|------------------------------------|

E|-----------------------0-----0-----|------------------------------------|-----------------------------------|
B|-0----0-----3-----3----------------|-3------3---------------------------|-----------------------------------|
G|------------0-----0----2-----2--%--|-2------2---%---2----2----0----2----|-2----2-------------------------%--|
D|-2----2-------------------------%--|-0------0---%---0----0---------0----|-0----0-------------------------%--|
A|-----------------------------------|--------------------------3---------|------------2-----0----------------|
E|-----------------------------------|------------------------------------|-----------------------3-----3-----|

E|-0------0---------------------------|-----------------------0-----0-----|------------------------------------|
B|-0------0-------0----0---------0----|-0----0-----3-----3----------------|-3------3---------------------------|
G|------------%-------------2---------|------------0-----0----2-----2--%--|-2------2---%---2----2----0----2----|
D|-2------2---%---2----2----0----2----|-2----2-------------------------%--|-0------0---%---0----0---------0----|
A|------------------------------------|-----------------------------------|--------------------------3---------|
E|------------------------------------|-----------------------------------|------------------------------------|

E|-----------------------------------|-0------0-------------------------|---------------------------------|
B|-----------------------------------|-0------0-------0-----0-----0-----|-0----0-----3-----3----3---------|
G|-2----2-------------------------%--|------------%------------%--------|------------0-----0----0----2----|
D|-0----0-------------------------%--|-2------2---%---2-----2--%--2-----|-2----2---------------------0----|
A|------------2-----0----------------|----------------------------------|---------------------------------|
E|-----------------------3-----3-----|----------------------------------|---------------------------------|

E|----------------------------------|-0-----0---------------------------|-0-------------------------------------|
B|--------------------0-----0-------|---------------0-----0-----0-------|-------0-------------0-----0-----0-----|
G|-2-----2--%--2-----------------%--|-2-----2----%-------------------%--|-2----------2---0-------------%--------|
D|-0-----0--%--0------2-----2----%--|------------%--2-----2-----2----%--|---------------------2-----2--%--2-----|
A|----------------------------------|-----------------------------------|---------------------------------------|
E|----------------------------------|-----------------------------------|---------------------------------------|

E|---------------------------------|----------------------------------------|----------------------------------------|
B|-0----0-----3-----3----3---------|----------------0-----------------------|--------------------0----0---------0----|
G|------------0-----0----0----2----|-2------2---%--------2---0---------0----|-2----0-----0----%------------2---------|
D|-2----2---------------------0----|-0------0---%-----------------2---------|-----------------%--2----2----2----2----|
A|---------------------------------|----------------------------------------|----------------------------------------|
E|---------------------------------|----------------------------------------|----------------------------------------|

E|-------------------------------------|------------------------------------|-------------------------------------|
B|------0---------3---------3----------|----------------0----0---------0----|------0---------3---------3----------|
G|-%---------%----0----%----0-----2----|-2------2---%-------------2---------|-%---------%----0----%----0-----2----|
D|-%----2----%---------%----------0----|-0------0---%---2----2----2----2----|-%----2----%---------%----------0----|
A|-------------------------------------|------------------------------------|-------------------------------------|
E|-------------------------------------|------------------------------------|-------------------------------------|

E|------------------------------------|-------------------------------------|------------------------------------|
B|----------------0----0---------0----|------0---------3---------3----------|----------------0----0---------0----|
G|-2------2---%-------------2---------|-%---------%----0----%----0-----2----|-2------2---%-------------2---------|
D|-0------0---%---2----2----2----2----|-%----2----%---------%----------0----|-0------0---%---2----2----2----2----|
A|------------------------------------|-------------------------------------|------------------------------------|
E|------------------------------------|-------------------------------------|------------------------------------|

E|-------------------------------------|------------------------------------|-------------------------------------|
B|------0---------3---------3----------|----------------0----0---------0----|------0---------3---------3----------|
G|-%---------%----0----%----0-----2----|-2------2---%-------------2---------|-%---------%----0----%----0-----2----|
D|-%----2----%---------%----------0----|-0------0---%---2----2----2----2----|-%----2----%---------%----------0----|
A|-------------------------------------|------------------------------------|-------------------------------------|
E|-------------------------------------|------------------------------------|-------------------------------------|

E|------------------------------------|-------------------------------------|------------------------------------|
B|----------------0----0---------0----|------0---------3---------3----------|----------------0----0---------0----|
G|-2------2---%-------------2---------|-%---------%----0----%----0-----2----|-2------2---%-------------2---------|
D|-0------0---%---2----2----2----2----|-%----2----%---------%----------0----|-0------0---%---2----2----2----2----|
A|------------------------------------|-------------------------------------|------------------------------------|
E|------------------------------------|-------------------------------------|------------------------------------|

E|-------------------------------------|------------------------------------|-------------------------------------|
B|------0---------3---------3----------|----------------0----0---------0----|------0---------3---------3----------|
G|-%---------%----0----%----0-----2----|-2------2---%-------------2---------|-%---------%----0----%----0-----2----|
D|-%----2----%---------%----------0----|-0------0---%---2----2----2----2----|-%----2----%---------%----------0----|
A|-------------------------------------|------------------------------------|-------------------------------------|
E|-------------------------------------|------------------------------------|-------------------------------------|

E|------------------------------------|-----------------------0-----0-----|------------------------------------|
B|----------------0----0---------0----|-0----0-----3-----3----------------|-3------3---------------------------|
G|-2------2---%-------------2---------|------------0-----0----2-----2--%--|-2------2---%---2----2----0----2----|
D|-0------0---%---2----2----0----2----|-2----2-------------------------%--|-0------0---%---0----0---------0----|
A|------------------------------------|-----------------------------------|--------------------------3---------|
E|------------------------------------|-----------------------------------|------------------------------------|

E|-----------------------------------|-0------0---------------------------|-----------------------0-----0-----|
B|-----------------------------------|-0------0-------0----0---------0----|-0----0-----3-----3----------------|
G|-2----2-------------------------%--|------------%-------------2---------|------------0-----0----2-----2--%--|
D|-0----0-------------------------%--|-2------2---%---2----2----0----2----|-2----2-------------------------%--|
A|------------2-----0----------------|------------------------------------|-----------------------------------|
E|-----------------------3-----3-----|------------------------------------|-----------------------------------|

E|------------------------------------|-----------------------------------|-0------0-------------------------|
B|-3------3---------------------------|-----------------------------------|-0------0-------0-----0-----0-----|
G|-2------2---%---2----2----0----2----|-2----2-------------------------%--|------------%------------%--------|
D|-0------0---%---0----0---------0----|-0----0-------------------------%--|-2------2---%---2-----2--%--2-----|
A|--------------------------3---------|------------2-----0----------------|----------------------------------|
E|------------------------------------|-----------------------3-----3-----|----------------------------------|

E|---------------------------------|----------------------------------|-0-----0---------------------------|
B|-0----0-----3-----3----3---------|--------------------0-----0-------|---------------0-----0-----0-------|
G|------------0-----0----0----2----|-2-----2--%--2-----------------%--|-2-----2----%-------------------%--|
D|-2----2---------------------0----|-0-----0--%--0------2-----2----%--|------------%--2-----2-----2----%--|
A|---------------------------------|----------------------------------|-----------------------------------|
E|---------------------------------|----------------------------------|-----------------------------------|

E|-0-------------------------------------|---------------------------------|----------------------------------------|
B|-------0-------------0-----0-----0-----|-0----0-----3-----3----3---------|----------------0-----------------------|
G|-2----------2---0-------------%--------|------------0-----0----0----2----|-2------2---%--------2---0---------0----|
D|---------------------2-----2--%--2-----|-2----2---------------------0----|-0------0---%-----------------2---------|
A|---------------------------------------|---------------------------------|----------------------------------------|
E|---------------------------------------|---------------------------------|----------------------------------------|

E|----------------------------------------|---------------------------------------------|
B|----------------------------------------|---------------------3-----3-----1-----1-----|
G|-2----0-----0----%----------------------|------------------------------%-----------%--|
D|-----------------%--2----2----2----2----|-2----2----2----2-------------%-----------%--|
A|----------------------------------------|---------------------------------------------|
E|----------------------------------------|---------------------------------------------|

E|-------------------------------------------------|-------------0-------------0-----2-----2-----|
B|-0-----0-----------------------------------------|-----------------------1---------3-----3-----|
G|----------%--2-----2--%--0-----0--%-----------%--|----------%----------------------2-----2--%--|
D|----------%-----------%-----------%--4-----4--%--|-2-----2--%--------2----------------------%--|
A|-------------------------------------------------|---------------------------------------------|
E|-------------------------------------------------|---------------------------------------------|

E|-3------3-----3--------2----|-------------0-----0-----------0---------------2----|
B|-5------5----------0--------|-----------------------------------1-------1--------|
G|-4------4-------------------|----------%-----------%-----------------------------|
D|----------------------------|-2-----2--%-----------%----2-----------2------------|
A|----------------------------|----------------------------------------------------|
E|----------------------------|----------------------------------------------------|

E|-3------3-------3------3-------|------8---3---0---8---0-------8------8-------|-0--7-----7--7-------0---7-------0---0----------------|
B|-------------------------------|--------------------------8------------------|-----------------8-----------8-------8----7-----7-----|
G|-0------0---%---0------0---%---|-%---------------------------------------%---|-7----------------------------------------7-----7--%--|
D|------------%--------------%---|-%---------------------------------------%---|---------------------------------------------------%--|
A|-------------------------------|---------------------------------------------|------------------------------------------------------|
E|-------------------------------|---------------------------------------------|------------------------------------------------------|

E|-0--8-----8--8-----------8-----------8----7-----7-----|-7----7-----------7------------0---3---7-------0---7----|
B|-----------------8-----------8------------8-----8-----|-8--------8---5-------8----0-------------------0--------|
G|-7-------------------9-----------9--------9-----9--%--|-9-----------------------------------------7------------|
D|---------------------------------------------------%--|-------------------------------------------7------------|
A|------------------------------------------------------|--------------------------------------------------------|
E|------------------------------------------------------|--------------------------------------------------------|

E|-8-----8-----8----8----8-----8-----7-----7-----|-5-----5-----8---5-------8---5----5----8-----8-----|
B|-8-----8-----8---------8-----8-----7-----7-----|-5-----5-------------5-------5----5----------------|
G|-9-----9--%--9---------9-----9--%--7-----7--%--|-5-----5--%-------------------------------------%--|
D|----------%---------------------%-----------%--|----------%-------------------------------------%--|
A|-----------------------------------------------|---------------------------------------------------|
E|-----------------------------------------------|---------------------------------------------------|

E|-7-----7-------7------------7-------0-------7-------|------7--------------7-----------7---0---------|
B|-8-----8-----------8---5--------8-------8-------8---|-----------8-------------8-----------8----7----|
G|-9-----9----%---------------------------------------|-9---------------9-----------9------------7----|
D|------------%---------------------------------------|-----------------------------------------------|
A|----------------------------------------------------|-----------------------------------------------|
E|----------------------------------------------------|-----------------------------------------------|

E|-0--8-----8--8-----------8-----------8----7-----7-----|-7-----------7-------------------0---3---7-------0---3----|
B|-----------------8-----------8------------8-----8-----|-----8---5-------8-----8-----0-------------------0--------|
G|-7-------------------9-----------9--------9-----9--%--|--------------------------%------------------7------------|
D|---------------------------------------------------%--|--------------------------%------------------7------------|
A|------------------------------------------------------|----------------------------------------------------------|
E|------------------------------------------------------|----------------------------------------------------------|

E|-8-----8-----8-----------8---------------7-----7-----|----0--3--7----7-------0---7-------0---7-------0-------0---7----|
B|-8-----8---------8-----------8-----8-----7-----7-----|-0-----------------8-----------8-----------8-------0------------|
G|-9-----9--%----------9----------------%--7-----7--%--|----------------------------------------------------------------|
D|----------%---------------------------%-----------%--|----------------------------------------------------------------|
A|-----------------------------------------------------|----------------------------------------------------------------|
E|-----------------------------------------------------|----------------------------------------------------------------|

E|-8-----8-----8-------------8--------7-----7-----|-8----8-----------8-----------8---------------------|
B|-8-----8----------8------------8----7-----7-----|-10-------10----------10-----------10---------------|
G|-9-----9--%------------9------------7-----7--%--|-9------------9-----------9-------------9-----9--%--|
D|----------%----------------------------------%--|-10----------------------------------------------%--|
A|------------------------------------------------|----------------------------------------------------|
E|------------------------------------------------|----------------------------------------------------|

E|-7----7-----------7-------0---7----7----7-----7-----|-7----7---------------------7-------0---0---------|
B|-8--------8---5-------8-----------------8-----8-----|-8--------8---5---------5-------8-------8----7----|
G|-9--------------------------------------9-----9--%--|-9------------------7------------------------7----|
D|-------------------------------------------------%--|--------------------------------------------------|
A|----------------------------------------------------|--------------------------------------------------|
E|----------------------------------------------------|--------------------------------------------------|

E|-8------8-----8-----------------------|-----------------------------------------|
B|-8------8---------8----8----7----7----|-----------------------------------------|
G|-9------9--%------9----9----7----7----|-----------------------------------------|
D|-----------%--------------------------|-----------------------------------------|
A|--------------------------------------|-7----7----7----7----7----7----7----7----|
E|--------------------------------------|-----------------------------------------|

E|----------------------------------------|-----------------------------------------|
B|----------------------------------------|-----------------------------------------|
G|--------------------------7-----7----%--|-----------------------------------------|
D|--------------------------7-----7----%--|-----------------------------------------|
A|-7----7----7----7----7----5-----5-------|-7----7----7----7----7----7----7----7----|
E|----------------------------------------|-----------------------------------------|

E|----------------------------------------|-----------------------------------------|
B|----------------------------------------|-----------------------------------------|
G|--------------------------7-----7----%--|-----------------------------------------|
D|--------------------------7-----7----%--|-----------------------------------------|
A|-7----7----7----7----7----5-----5-------|-7----7----7----7----7----7----7----7----|
E|----------------------------------------|-----------------------------------------|

E|----------------------------------------|-----------------------------------------|
B|----------------------------------------|-----------------------------------------|
G|--------------------------7-----7----%--|-----------------------------------------|
D|--------------------------7-----7----%--|-----------------------------------------|
A|-7----7----7----7----7----5-----5-------|-7----7----7----7----7----7----7----7----|
E|----------------------------------------|-----------------------------------------|

E|----------------------------------------|-5----12---12--------12---12--------12---|
B|----------------------------------------|------12---12---10---12---12---10---12---|
G|--------------------------7-----7----%--|-----------------------------------------|
D|--------------------------7-----7----%--|-----------------------------------------|
A|-7----7----7----7----7----5-----5-------|-----------------------------------------|
E|----------------------------------------|-----------------------------------------|

E|-12--------12---12---10----10------12---|-15---12---15---12--10---12---10-------10-------10---|
B|-12---10---12---12----------------------|----------------------------------12--------12-------|
G|--------------------------------%-------|-----------------------------------------------------|
D|--------------------------------%-------|-----------------------------------------------------|
A|----------------------------------------|-----------------------------------------------------|
E|----------------------------------------|-----------------------------------------------------|

E|-------------10---12---10---|-12-----12----12----10----10----|-12---10--9----10---9---7----5----3----5-----|
B|-10-----10------------------|--------------------------------|---------------------------------------------|
G|----------------------------|-----------------%-----------%--|---------------------------------------------|
D|----------------------------|-----------------%-----------%--|---------------------------------------------|
A|----------------------------|--------------------------------|---------------------------------------------|
E|----------------------------|--------------------------------|---------------------------------------------|

E|-5------5---------3----5---3----|-2----3---2----3----2---3----0----2----0-----0-----|
B|--------------------------------|---------------------------------------------------|
G|--------------%-----------------|------------------------------------------------%--|
D|--------------%-----------------|------------------------------------------------%--|
A|--------------------------------|---------------------------------------------------|
E|--------------------------------|---------------------------------------------------|

E|-----------------------------------------|----------------------------------------|
B|-----------------------------------------|----------------------------------------|
G|-----------------------------------------|-------------------------------------%--|
D|-----------------------------------------|--------------------------12----12---%--|
A|-----------------------------------------|--------------------------12----12------|
E|-12---12---12---12---12---12---12---12---|-12---12---12---12---12---10----10------|

E|-----------------------------------------|----------------------------------------|
B|-----------------------------------------|----------------------------------------|
G|-----------------------------------------|-------------------------------------%--|
D|-----------------------------------------|--------------------------12----12---%--|
A|-----------------------------------------|--------------------------12----12------|
E|-12---12---12---12---12---12---12---12---|-12---12---12---12---12---10----10------|

E|-----------------------------------------|----------------------------------------|
B|-----------------------------------------|----------------------------------------|
G|-----------------------------------------|-------------------------------------%--|
D|-----------------------------------------|--------------------------12----12---%--|
A|-----------------------------------------|--------------------------12----12------|
E|-12---12---12---12---12---12---12---12---|-12---12---12---12---12---10----10------|

E|-----------------------------------------|----------------------------------------|
B|-----------------------------------------|----------------------------------------|
G|-----------------------------------------|-------------------------------------%--|
D|-----------------------------------------|--------------------------12----12---%--|
A|-----------------------------------------|--------------------------12----12------|
E|-12---12---12---12---12---12---12---12---|-12---12---12---12---12---10----10------|

E|-0-------0---------|-3------3------------------|-0-------0---------|-3------3----------------|
B|-0-------0---------|-3------3-----3------3-----|-0-------0---------|-3------3-----3----------|
G|---------------%---|-0------0--%--2------2--%--|---------------%---|-0------0--%--2------%---|
D|---------------%---|-----------%--0------0--%--|-2-------2-----%---|-----------%--0------%---|
A|-------------------|---------------------------|-------------------|-------------------------|
E|-12------12--------|---------------------------|-------------------|-------------------------|

E|-----------------------------------------|--------------------------------|-----------------------------------------|
B|-0----0---------0---------0---------3----|------3-------------------------|-0----0---------0---------0---------3----|
G|-----------2---------%---------%----0----|-%----0-----2----2------2---%---|-----------2---------%---------%----0----|
D|-2----2----2----2----%----2----%---------|-%----------0----0------0---%---|-2----2----2----2----%----2----%---------|
A|-----------------------------------------|--------------------------------|-----------------------------------------|
E|-----------------------------------------|--------------------------------|-----------------------------------------|

E|--------------------------------|-----------------------------------------|--------------------------------|
B|------3-------------------------|-0----0---------0---------0---------3----|------3-------------------------|
G|-%----0-----2----2------2---%---|-----------2---------%---------%----0----|-%----0-----2----2------2---%---|
D|-%----------0----0------0---%---|-2----2----2----2----%----2----%---------|-%----------0----0------0---%---|
A|--------------------------------|-----------------------------------------|--------------------------------|
E|--------------------------------|-----------------------------------------|--------------------------------|

E|-----------------------------------------|--------------------------------|-----------------------------------------|
B|-0----0---------0---------0---------3----|------3-------------------------|-0----0---------0---------0---------3----|
G|-----------2---------%---------%----0----|-%----0-----2----2------2---%---|-----------2---------%---------%----0----|
D|-2----2----2----2----%----2----%---------|-%----------0----0------0---%---|-2----2----2----2----%----2----%---------|
A|-----------------------------------------|--------------------------------|-----------------------------------------|
E|-----------------------------------------|--------------------------------|-----------------------------------------|

E|--------------------------------|-----------------------------------------|--------------------------------|
B|------3-------------------------|-0----0---------0---------0---------3----|------3-------------------------|
G|-%----0-----2----2------2---%---|-----------2---------%---------%----0----|-%----0-----2----2------2---%---|
D|-%----------0----0------0---%---|-2----2----2----2----%----2----%---------|-%----------0----0------0---%---|
A|--------------------------------|-----------------------------------------|--------------------------------|
E|--------------------------------|-----------------------------------------|--------------------------------|

E|-----------------------------------------|--------------------------------|-----------------------------------------|
B|-0----0---------0---------0---------3----|------3-------------------------|-0----0---------0---------0---------3----|
G|-----------2---------%---------%----0----|-%----0-----2----2------2---%---|-----------2---------%---------%----0----|
D|-2----2----2----2----%----2----%---------|-%----------0----0------0---%---|-2----2----2----2----%----2----%---------|
A|-----------------------------------------|--------------------------------|-----------------------------------------|
E|-----------------------------------------|--------------------------------|-----------------------------------------|

E|--------------------------------|---------------------------------|-----------0-----0--------------------|
B|------3-------------------------|-0----0---------0-----0-----3----|-3----3----------------3------3-------|
G|-%----0-----2----2------2---%---|-----------2----------------0----|-0----0----2-----2--%--2------2---%---|
D|-%----------0----0------0---%---|-2----2----0----2-----2----------|--------------------%--0------0---%---|
A|--------------------------------|---------------------------------|--------------------------------------|
E|--------------------------------|---------------------------------|--------------------------------------|

E|---------------------------------|-----------------------0------0-------|---------------------------------|
B|---------------------------------|-----------------------0------0-------|-0----0---------0-----0-----3----|
G|-2----2----0----2-----2----------|--------------------%-------------%---|-----------2----------------0----|
D|-0----0---------0-----0----------|--------------------%--2------2---%---|-2----2----0----2-----2----------|
A|-----------3----------------2----|-2----0-------------------------------|---------------------------------|
E|---------------------------------|-----------3-----3--------------------|---------------------------------|

E|-----------0-----0--------------------|---------------------------------|-----------------------0------0-------|
B|-3----3----------------3------3-------|---------------------------------|-----------------------0------0-------|
G|-0----0----2-----2--%--2------2---%---|-2----2----0----2-----2----------|--------------------%-------------%---|
D|--------------------%--0------0---%---|-0----0---------0-----0----------|--------------------%--2------2---%---|
A|--------------------------------------|-----------3----------------2----|-2----0-------------------------------|
E|--------------------------------------|---------------------------------|-----------3-----3--------------------|

E|-------------------------------|---------------------------------------|--------------------0-----0------------|
B|-0-----0-----0------0-----3----|-3----3----3---------------------------|------0-----0---------------------0----|
G|----------%---------------0----|-0----0----0----2----2-----2--%--2-----|-2---------------%--2-----2----%-------|
D|-2-----2--%--2------2----------|----------------0----0-----0--%--0-----|-0----2-----2----%-------------%--2----|
A|-------------------------------|---------------------------------------|---------------------------------------|
E|-------------------------------|---------------------------------------|---------------------------------------|

E|--------------------0-------------------|-------------------------------|------------------------------------|
B|-0----0-----0-------------0-------------|-0-----0-----0------0-----3----|-3----3----3------------------------|
G|-----------------%--2----------2---0----|----------%---------------0----|-0----0----0----2----2------2---%---|
D|-2----2-----2----%----------------------|-2-----2--%--2------2----------|----------------0----0------0---%---|
A|----------------------------------------|-------------------------------|------------------------------------|
E|----------------------------------------|-------------------------------|------------------------------------|

E|--------------------------------------------|-----------------------------------------|
B|-0------------------------------------------|-----------------------------------------|
G|------2---0---------0----2----0-----0----%--|-----------------------------------------|
D|---------------2-------------------------%--|-2----2----2----2----2----2----2----2----|
A|--------------------------------------------|-----------------------------------------|
E|--------------------------------------------|-----------------------------------------|

E|-----------------------------------------|-5-----5----------3---------2---------0----|
B|-----------------------------------------|-------------------------------------------|
G|-----------------------------------------|----------%----%-------%---------%---------|
D|-2----2----2----2----2----2----2----2----|----------%----%-------%---------%---------|
A|-----------------------------------------|-------------------------------------------|
E|-----------------------------------------|-------------------------------------------|

E|-------------------------------------|-------------------------------------|------0---------0----0------0-------|
B|------3---------3----3-----3----3----|-3-----3----3---------3---------3----|------------------------------------|
G|-%---------%-------------------------|-----------------%---------%---------|-%---------%--------------------%---|
D|-%---------%-------------------------|-----------------%---------%---------|-%---------%--------------------%---|
A|-------------------------------------|-------------------------------------|------------------------------------|
E|-------------------------------------|-------------------------------------|------------------------------------|

E|-------------------------------------|------0---------0----0------0-------|-5-----5----------3---------2---------3----|
B|-3-----3----3---------3---------3----|------------------------------------|-------------------------------------------|
G|-----------------%---------%---------|-%---------%--------------------%---|----------%----%-------%---------%---------|
D|-----------------%---------%---------|-%---------%--------------------%---|----------%----%-------%---------%---------|
A|-------------------------------------|------------------------------------|-------------------------------------------|
E|-------------------------------------|------------------------------------|-------------------------------------------|

E|-5-----5----------3---------2---------3----|-5-----5----------3---------2----0---------|
B|-------------------------------------------|--------------------------------------2----|
G|----------%----%-------%---------%---------|----------%----%-------%-------------------|
D|----------%----%-------%---------%---------|----------%----%-------%-------------------|
A|-------------------------------------------|-------------------------------------------|
E|-------------------------------------------|-------------------------------------------|

E|-----------------------5------5-------|
B|-2---------------------5------5-------|
G|------2----1-----1--%--2------2---%---|
D|--------------------%-------------%---|
A|--------------------------------------|
E|--------------------------------------|
Iron Maiden - Charlotte The Harlot
Iron Maiden - Charlotte The Harlot.gp3