Iron Maiden - Children Of The Damned

Iron Maiden



Title: Children Of The Damned
Album: The Number Of The Beast
Artist: Iron Maiden
Author: Harris

Track 1: Guitarra 1
E|---------|-0-----0----------------------------3---------------|-------2----------------0---------------2-----------|
B|---------|-0---------0--------------------3-------3-----------|-----------3----------------1---------------3-------|
G|-%-------|-0-------------0------------0---------------0-------|-2-------------2----------------0---2-----------2---|
D|-%-------|-2-----------------2----------------------------0---|-0------------------2---------------0---------------|
A|---------|-2--------------------------------------------------|--------------------3-------------------------------|
E|---------|-0---------------------3----------------------------|----------------------------------------------------|

E|-------0----------------------------3---------------|-------2----------------0---------------2-----------|
B|-----------0--------------------3-------3-----------|-----------3----------------1---------------3-------|
G|---------------0------------0---------------0-------|-2-------------2----------------0---2-----------2---|
D|-2-----------------2----------------------------0---|-0------------------2---------------0---------------|
A|-2--------------------------------------------------|--------------------3-------------------------------|
E|-0---------------------3----------------------------|----------------------------------------------------|

E|-------0----------------------------3---------------|-------2----------------0---------------2-----------|
B|-----------0--------------------3-------3-----------|-----------3----------------1---------------3-------|
G|---------------0------------0---------------0-------|-2-------------2----------------0---2-----------2---|
D|-2-----------------2----------------------------0---|-0------------------2---------------0---------------|
A|-2--------------------------------------------------|--------------------3-------------------------------|
E|-0---------------------3----------------------------|----------------------------------------------------|

E|-------0----------------------------3---------------|-------2----------------0---------------2-----------|
B|-----------0--------------------3-------3-----------|-----------3----------------1---------------3-------|
G|---------------0------------0---------------0-------|-2-------------2----------------0---2-----------2---|
D|-2-----------------2----------------------------0---|-0------------------2---------------0---------------|
A|-2--------------------------------------------------|--------------------3-------------------------------|
E|-0---------------------3----------------------------|----------------------------------------------------|

E|---------------------0----------------------|-----------------------------------------|
B|--------------------------0-----------------|----------------0-------------------0----|
G|----------------0--------------0------------|-----------0-------------------0---------|
D|-----------2--------------------------------|------2-------------------4--------------|
A|------2-----------------------------0---2---|-3-------------------5-------------------|
E|-0------------------------------------------|-----------------------------------------|

E|---------------------0----------------------|-----------------------------------------|
B|--------------------------0-----------------|----------------0-------------------0----|
G|----------------0--------------0------------|-----------0-------------------0---------|
D|-----------2--------------------------------|------2-------------------4--------------|
A|------2-----------------------------0---2---|-3-------------------5-------------------|
E|-0------------------------------------------|-----------------------------------------|

E|---------------------0----------------------|-----------------------------------------|
B|--------------------------0-----------------|----------------0-------------------0----|
G|----------------0--------------0------------|-----------0-------------------0---------|
D|-----------2--------------------------------|------2-------------------4--------------|
A|------2-----------------------------0---2---|-3-------------------5-------------------|
E|-0------------------------------------------|-----------------------------------------|

E|---------------------0----------------------|-----------------------------------------|
B|--------------------------0-----------------|----------------0-------------------0----|
G|----------------0--------------0------------|-----------0-------------------0---------|
D|-----------2--------------------------------|------2-------------------4--------------|
A|------2-----------------------------0---2---|-3-------------------5-------------------|
E|-0------------------------------------------|-----------------------------------------|

E|------------------------------------|---------------------------------------|------------------------------------|
B|------------------------------------|---------------------------------------|------------------------------------|
G|-------9----9-----4----4------------|-5-----5-----7---7---------------------|-------9----9-----4----4------------|
D|-2-----9----9-----4----4------------|-5-----5-----7---7----7----7---5---4---|-2-----9----9-----4----4------------|
A|-2-----7----7-----2----2----0---2---|-3-----3-----5---5----7----7---5---4---|-2-----7----7-----2----2----0---2---|
E|-0----------------------------------|----------------------5----5---3---2---|-0----------------------------------|

E|---------------------------------------|------------------------------------|---------------------------------------|
B|---------------------------------------|------------------------------------|---------------------------------------|
G|-5-----5-----7---7---------------------|-------9----9-----4----4------------|-5-----5-----7---7---------------------|
D|-5-----5-----7---7----7----7---5---4---|-2-----9----9-----4----4------------|-5-----5-----7---7----7----7---5---4---|
A|-3-----3-----5---5----7----7---5---4---|-2-----7----7-----2----2----0---2---|-3-----3-----5---5----7----7---5---4---|
E|----------------------5----5---3---2---|-0----------------------------------|----------------------5----5---3---2---|

E|------------------------------------|---------------------------------------|---------------------0----------------------|
B|------------------------------------|---------------------------------------|--------------------------0-----------------|
G|-------9----9-----4----4------------|-5-----5-----7---7---------------------|----------------0--------------0------------|
D|-2-----9----9-----4----4------------|-5-----5-----7---7----7----7---5---4---|-----------2--------------------------------|
A|-2-----7----7-----2----2----0---2---|-3-----3-----5---5----7----7---5---4---|------2-----------------------------0---2---|
E|-0----------------------------------|----------------------5----5---3---2---|-0------------------------------------------|

E|-----------------------------------------|---------------------0----------------------|
B|----------------0-------------------0----|--------------------------0-----------------|
G|-----------0-------------------0---------|----------------0--------------0------------|
D|------2-------------------4--------------|-----------2--------------------------------|
A|-3-------------------5-------------------|------2-----------------------------0---2---|
E|-----------------------------------------|-0------------------------------------------|

E|-----------------------------------------|---------------------0----------------------|
B|----------------0-------------------0----|--------------------------0-----------------|
G|-----------0-------------------0---------|----------------0--------------0------------|
D|------2-------------------4--------------|-----------2--------------------------------|
A|-3-------------------5-------------------|------2-----------------------------0---2---|
E|-----------------------------------------|-0------------------------------------------|

E|-----------------------------------------|---------------------0----------------------|
B|----------------0-------------------0----|--------------------------0-----------------|
G|-----------0-------------------0---------|----------------0--------------0------------|
D|------2-------------------4--------------|-----------2--------------------------------|
A|-3-------------------5-------------------|------2-----------------------------0---2---|
E|-----------------------------------------|-0------------------------------------------|

E|-----------------------------------------|------------------------------------|---------------------------------------|
B|----------------0-------------------0----|------------------------------------|---------------------------------------|
G|-----------0-------------------0---------|-------9----9-----4----4------------|-5-----5-----7---7---------------------|
D|------2-------------------4--------------|-2-----9----9-----4----4------------|-5-----5-----7---7----7----7---5---4---|
A|-3-------------------5-------------------|-2-----7----7-----2----2----0---2---|-3-----3-----5---5----7----7---5---4---|
E|-----------------------------------------|-0----------------------------------|----------------------5----5---3---2---|

E|------------------------------------|---------------------------------------|------------------------------------|
B|------------------------------------|---------------------------------------|------------------------------------|
G|-------9----9-----4----4------------|-5-----5-----7---7---------------------|-------9----9-----4----4------------|
D|-2-----9----9-----4----4------------|-5-----5-----7---7----7----7---5---4---|-2-----9----9-----4----4------------|
A|-2-----7----7-----2----2----0---2---|-3-----3-----5---5----7----7---5---4---|-2-----7----7-----2----2----0---2---|
E|-0----------------------------------|----------------------5----5---3---2---|-0----------------------------------|

E|---------------------------------------|------------------------------------|------------------------------------|
B|---------------------------------------|------------------------------------|------------------------------------|
G|-5-----5-----7---7---------------------|-------9----9-----4----4------------|-5-----5-----9----7----6----7---9---|
D|-5-----5-----7---7----7----7---5---4---|-2-----9----9-----4----4------------|-5-----5-----7----5----4----7---9---|
A|-3-----3-----5---5----7----7---5---4---|-2-----7----7-----2----2----0---2---|-3-----3--------------------5---7---|
E|----------------------5----5---3---2---|-0----------------------------------|------------------------------------|

E|---------|----------------------|---------|----------------------|----------------------|
B|---------|----------------------|---------|----------------------|----------------------|
G|-9-------|-%-------9----%--7----|-7-------|-%-------7----%--5----|-%-------5----%--7----|
D|-9-------|-%-------9----%--7----|-7-------|-%-------7----%--5----|-%-------5----%--7----|
A|-7-------|---------7-------5----|-5-------|---------5-------3----|---------3-------5----|
E|---------|----------------------|---------|----------------------|----------------------|

E|----------------------|---------|----------------------|---------|----------------------|
B|----------------------|---------|----------------------|---------|----------------------|
G|-7-------7----%--9----|-9-------|-%-------9----X--9----|-9-------|-%-------9----%--7----|
D|-7-------7----%--9----|-9-------|-%-------9----X--9----|-9-------|-%-------9----%--7----|
A|-5-------5-------7----|-7-------|---------7----X--7----|-7-------|---------7-------5----|
E|----------------------|---------|----------------------|---------|----------------------|

E|---------------------|----------------------|----------------------|----------------------|
B|---------------------|----------------------|----------------------|----------------------|
G|-%-------7-----%--%--|-%-------7----%--5----|-%-------5----%--7----|-7-------7----%--9----|
D|-%-------7-----%--%--|-%-------7----%--5----|-%-------5----%--7----|-7-------7----%--9----|
A|---------5-----------|---------5-------3----|---------3-------5----|-5-------5-------7----|
E|---------------------|----------------------|----------------------|----------------------|

E|---------|----------------------|---------|----------------------|---------------------|
B|---------|----------------------|---------|----------------------|---------------------|
G|-9-------|-%-------9----X--9----|-9-------|-%-------9----%--7----|-%-------7-----%--%--|
D|-9-------|-%-------9----X--9----|-9-------|-%-------9----%--7----|-%-------7-----%--%--|
A|-7-------|---------7----X--7----|-7-------|---------7-------5----|---------5-----------|
E|---------|----------------------|---------|----------------------|---------------------|

E|----------------------|----------------------|----------------------|---------|----------------------|
B|----------------------|----------------------|----------------------|---------|----------------------|
G|-%-------7----%--5----|-%-------5----%--7----|-7-------7----%--9----|-9-------|-%-------9----X--9----|
D|-%-------7----%--5----|-%-------5----%--7----|-7-------7----%--9----|-9-------|-%-------9----X--9----|
A|---------5-------3----|---------3-------5----|-5-------5-------7----|-7-------|---------7----X--7----|
E|----------------------|----------------------|----------------------|---------|----------------------|

E|---------|----------------------|---------------------|----------------------|----------------------|
B|---------|----------------------|---------------------|----------------------|----------------------|
G|-9-------|-%-------9----%--7----|-%-------7-----%--%--|-%-------7----%--5----|-%-------5----%--7----|
D|-9-------|-%-------9----%--7----|-%-------7-----%--%--|-%-------7----%--5----|-%-------5----%--7----|
A|-7-------|---------7-------5----|---------5-----------|---------5-------3----|---------3-------5----|
E|---------|----------------------|---------------------|----------------------|----------------------|

E|----------------------|---------|------------------------|--------------------|-----------------------------|
B|----------------------|---------|-------------------8----|--------8-----10----|-12----10----8-----12---7----|
G|-7-------7----%--9----|-9-------|-%------%-----%---------|-%------------------|-----------------------------|
D|-7-------7----%--9----|-9-------|-%------%-----%---------|-%------------------|-----------------------------|
A|-5-------5-------7----|-7-------|------------------------|--------------------|-----------------------------|
E|----------------------|---------|------------------------|--------------------|-----------------------------|

E|--------------------|-----------------------------|------------------------|------------------------|
B|--------7-----------|-----------------------------|--------8-----8----10---|-10-----8-----8---------|
G|-%------------9-----|-11----9-----7-----11---9----|-9----------------------|-9-----------------11---|
D|-%------------------|-----------------------------|------------------------|------------------------|
A|--------------------|-----------------------------|------------------------|------------------------|
E|--------------------|-----------------------------|------------------------|------------------------|

E|---------|------------------------|--------------------|-----------------------------|
B|---------|-------------------8----|--------8-----10----|-12----10----8-----12---7----|
G|-11------|-%------11----%---------|-%------------------|-----------------------------|
D|---------|-%------------%---------|-%------------------|-----------------------------|
A|---------|------------------------|--------------------|-----------------------------|
E|---------|------------------------|--------------------|-----------------------------|

E|--------------------|-----------------------------|------------------------|------------------------|
B|--------7-----------|-----------------------------|--------8-----8----10---|-10-----8-----8---------|
G|-%------------9-----|-11----9-----7-----11---9----|-9----------------------|-9-----------------11---|
D|-%------------------|-----------------------------|------------------------|------------------------|
A|--------------------|-----------------------------|------------------------|------------------------|
E|--------------------|-----------------------------|------------------------|------------------------|

E|---------|-----------------------------------------|-----------------------------------------|
B|---------|-----------------------------------------|-----------------------------------------|
G|-11------|-9----9----%----7----7----%----7----9----|-9---------9--------------9--------------|
D|---------|-9----9----%----7----7----%----7----9----|-9---------9--------------9--------------|
A|---------|-7----7---------5----5---------5----7----|-7----7----7----7----7----7----7----7----|
E|---------|-----------------------------------------|-----------------------------------------|

E|-----------------------------------------|-----------------------------------------|
B|-----------------------------------------|-----------------------------------------|
G|-9--------------9---------9---------4----|-4---------4--------------4--------------|
D|-9--------------9---------9---------4----|-4---------4--------------4--------------|
A|-7----7----7----7----7----7----7----2----|-2----2----2----2----2----2----2----2----|
E|-----------------------------------------|-----------------------------------------|

E|-----------------------------------------|-----------------------------------------|
B|-----------------------------------------|-----------------------------------------|
G|-4--------------4---------4---------5----|-5---------5--------------5---------7----|
D|-4--------------4---------4---------5----|-5---------5--------------5---------7----|
A|-2----2----2----2----2----2----2----3----|-3----3----3----3----3----3----3----5----|
E|-----------------------------------------|-----------------------------------------|

E|-----------------------------------------|-----------------------------------------|
B|-----------------------------------------|-----------------------------------------|
G|-7---------7--------------7---------9----|-9---------9--------------9--------------|
D|-7---------7--------------7---------9----|-9---------9--------------9--------------|
A|-5----5----5----5----5----5----5----7----|-7----7----7----7----7----7----7----7----|
E|-----------------------------------------|-----------------------------------------|

E|-----------------------------------------|-----------------------------------------|
B|-----------------------------------------|-----------------------------------------|
G|-9----9----%----7----7----%----7----9----|-9---------9--------------9--------------|
D|-9----9----%----7----7----%----7----9----|-9---------9--------------9--------------|
A|-7----7---------5----5---------5----7----|-7----7----7----7----7----7----7----7----|
E|-----------------------------------------|-----------------------------------------|

E|-----------------------------------------|-----------------------------------------|
B|-----------------------------------------|-----------------------------------------|
G|-9--------------9---------9---------4----|-4---------4--------------4--------------|
D|-9--------------9---------9---------4----|-4---------4--------------4--------------|
A|-7----7----7----7----7----7----7----2----|-2----2----2----2----2----2----2----2----|
E|-----------------------------------------|-----------------------------------------|

E|-----------------------------------------|-----------------------------------------|
B|-----------------------------------------|-----------------------------------------|
G|-4--------------4---------4---------5----|-5---------5--------------5---------7----|
D|-4--------------4---------4---------5----|-5---------5--------------5---------7----|
A|-2----2----2----2----2----2----2----3----|-3----3----3----3----3----3----3----5----|
E|-----------------------------------------|-----------------------------------------|

E|-----------------------------------------|-----------------------------------------|
B|-----------------------------------------|-----------------------------------------|
G|-7---------7--------------7---------9----|-9---------9--------------9--------------|
D|-7---------7--------------7---------9----|-9---------9--------------9--------------|
A|-5----5----5----5----5----5----5----7----|-7----7----7----7----7----7----7----7----|
E|-----------------------------------------|-----------------------------------------|

E|-----------------------------------------|---------|----------------------|---------|
B|-----------------------------------------|---------|----------------------|---------|
G|-9----9----%----7----7----%----7----9----|-9-------|-%-------9----%--7----|-7-------|
D|-9----9----%----7----7----%----7----9----|-9-------|-%-------9----%--7----|-7-------|
A|-7----7---------5----5---------5----7----|-7-------|---------7-------5----|-5-------|
E|-----------------------------------------|---------|----------------------|---------|

E|----------------------|---------|-----------------------------|---------|----------------------|
B|----------------------|---------|-----------------------------|---------|----------------------|
G|-%-------7----%--5----|-5-------|-%-----%-----%-----5----7----|-7-------|-%-------7----X--9----|
D|-%-------7----%--5----|-5-------|-%-----%-----%-----5----7----|-7-------|-%-------7----X--9----|
A|---------5-------3----|-3-------|-------------------3----5----|-5-------|---------5----X--7----|
E|----------------------|---------|-----------------------------|---------|----------------------|

E|---------|----------------------|---------|----------------------|---------|-----------------------------|
B|---------|----------------------|---------|----------------------|---------|-----------------------------|
G|-9-------|-%-------9----%--7----|-7-------|-%-------7----%--5----|-5-------|-%-----%-----%-----5----7----|
D|-9-------|-%-------9----%--7----|-7-------|-%-------7----%--5----|-5-------|-%-----%-----%-----5----7----|
A|-7-------|---------7-------5----|-5-------|---------5-------3----|-3-------|-------------------3----5----|
E|---------|----------------------|---------|----------------------|---------|-----------------------------|

E|---------|----------------------|---------|----------------------|---------|----------------------|
B|---------|----------------------|---------|----------------------|---------|----------------------|
G|-7-------|-%-------7----X--9----|-9-------|-%-------9----%--7----|-7-------|-%-------7----%--5----|
D|-7-------|-%-------7----X--9----|-9-------|-%-------9----%--7----|-7-------|-%-------7----%--5----|
A|-5-------|---------5----X--7----|-7-------|---------7-------5----|-5-------|---------5-------3----|
E|---------|----------------------|---------|----------------------|---------|----------------------|

E|---------|-----------------------------|---------|----------------------|---------|
B|---------|-----------------------------|---------|----------------------|---------|
G|-5-------|-%-----%-----%-----5----7----|-7-------|-%-------7----X--9----|-9-------|
D|-5-------|-%-----%-----%-----5----7----|-7-------|-%-------7----X--9----|-9-------|
A|-3-------|-------------------3----5----|-5-------|---------5----X--7----|-7-------|
E|---------|-----------------------------|---------|----------------------|---------|

E|----------------------|---------|----------------------|---------|-----------------------------|
B|----------------------|---------|----------------------|---------|-----------------------------|
G|-%-------9----%--7----|-7-------|-%-------7----%--5----|-5-------|-%-----%-----%-----5----7----|
D|-%-------9----%--7----|-7-------|-%-------7----%--5----|-5-------|-%-----%-----%-----5----7----|
A|---------7-------5----|-5-------|---------5-------3----|-3-------|-------------------3----5----|
E|----------------------|---------|----------------------|---------|-----------------------------|

E|---------|-------------------------|---------|---------|---------|--------------------|
B|---------|-------------------------|---------|---------|---------|--------------------|
G|-7-------|-9-----7-----------------|-9-------|-9-------|-9-------|-9-----%------%-----|
D|-7-------|-9-----7-----5-----7-----|-9-------|-9-------|-9-------|-9-----%------%-----|
A|-5-------|-7-----5-----5-----7-----|-7-------|-7-------|-7-------|-7------------------|
E|---------|-------------3-----5-----|---------|---------|---------|--------------------|

E|---------|---------|---------|---------|---------|---------|
B|---------|---------|---------|---------|---------|---------|
G|-%-------|-%-------|-%-------|-%-------|-%-------|-%-------|
D|-%-------|-%-------|-%-------|-%-------|-%-------|-%-------|
A|---------|---------|---------|---------|---------|---------|
E|---------|---------|---------|---------|---------|---------|
Iron Maiden - Children Of The Damned
Iron Maiden - Children Of The Damned.gp3