Iron Maiden - Como Estais Amigos

Iron Maiden



Title: Como Estais Amigos
Album: Virtual XI
Artist: Iron Maiden
Author: 

Track 1: Guitare 1
E|-----------1----0--------------1----0----|-----------1----0--------------1----0----|
B|-----------3-------------------3---------|-----------3-------------------3---------|
G|------2-------------------2--------------|------2-------------------2--------------|
D|-0-------------------0-------------------|-0-------------------0-------------------|
A|-----------------------------------------|-----------------------------------------|
E|-----------------------------------------|-----------------------------------------|

E|-----------1----0--------------1----0----|-----------1----0--------------1---0-----------|
B|-----------3-------------------3---------|-----------3-------------------3-------3-------|
G|------2-------------------2--------------|------0-------------------0----------------0---|
D|-0-------------------3-------------------|-----------------------------------------------|
A|-----------------------------------------|-3-------------------2-------------------------|
E|-----------------------------------------|-----------------------------------------------|

E|-----------------------------------------|-----------------------------------------|
B|---------------------3-------------------|---------------------5-------------------|
G|-----------0-------------------0---------|-----------0-------------------0---------|
D|------3---------3---------3---------3----|------5---------5---------5---------5----|
A|-1---------------------------------------|-3---------------------------------------|
E|-----------------------------------------|-----------------------------------------|

E|-----------------------------------------|-----------------------------------------|
B|-----------3-------------------3---------|-----------1-----------------------------|
G|------2---------2---------3---------3----|-----------0-------------------2---------|
D|-0-------------------3-------------------|------2---------2---------2---------2----|
A|-----------------------------------------|-3-------------------0-------------------|
E|-----------------------------------------|-----------------------------------------|

E|-----------------------------------------|-----------1----0--------------1----0----|
B|-----------------------------------------|-----------3-------------------3---------|
G|-----------3-------------------0---------|------2-------------------2--------------|
D|------3---------3---------2---------2----|-0-------------------0-------------------|
A|-1-------------------3-------------------|-----------------------------------------|
E|-----------------------------------------|-----------------------------------------|

E|-----------------------------------------|---------------------0-------------------|
B|-----------3-------------------3---------|-----------3--------------3--------------|
G|------2---------2---------0---------0----|------0---------0--------------0---------|
D|-0---------------------------------------|------------------------------------0----|
A|---------------------3-------------------|-1---------------------------------------|
E|-----------------------------------------|-----------------------------------------|

E|-----------------------------------------|---------------------0-------------------|
B|-----------3-------------------3---------|-----------3--------------3--------------|
G|------2---------2---------0---------0----|------0---------0--------------0---------|
D|-0---------------------------------------|------------------------------------0----|
A|---------------------3-------------------|-1---------------------------------------|
E|-----------------------------------------|-----------------------------------------|

E|-----------------------------------------|-----------1----0--------------1----0----|
B|----------------1-------------------1----|-----------3-------------------3---------|
G|-----------0-------------------0---------|------2-------------------2--------------|
D|------2-------------------2--------------|-0-------------------0-------------------|
A|-3-------------------0-------------------|-----------------------------------------|
E|-----------------------------------------|-----------------------------------------|

E|----------------0-------------------0----|----------------0--------------1---0-----------|
B|-----------3-------------------3---------|-----------3---------------------------3-------|
G|------2-------------------2--------------|------0-------------------0----------------0---|
D|-0-------------------3-------------------|-----------------------------------------------|
A|-----------------------------------------|-3-------------------2-------------------------|
E|-----------------------------------------|-----------------------------------------------|

E|-----------------------------------------|-----------------------------------------|
B|-----------------------------------------|-----------------------------------------|
G|-----------3----3--------------3---------|-----------5----5--------------5---------|
D|-----------3----3--------------3---------|-----------5----5--------------5---------|
A|-1----1--------------1----1---------1----|-3----3--------------3----3---------3----|
E|-----------------------------------------|-----------------------------------------|

E|-----------------------------------------|-----------------------------------------|
B|-----------------------------------------|-----------------------------------------|
G|-----------7-------------------3---------|-----------5-------------------2---------|
D|------7---------7---------3---------3----|------5---------5---------2---------2----|
A|-5-------------------1-------------------|-3-------------------0-------------------|
E|-----------------------------------------|-----------------------------------------|

E|-----------------------------------------|-----------------------------------------|
B|-----------------------------------------|-----------------------------------------|
G|-----------3-------------------5---------|-7----7----7----7----7----7----7----7----|
D|------3---------3---------5---------5----|-7----7----7----7----7----7----7----7----|
A|-1-------------------3-------------------|-5----5----5----5----5----5----5----5----|
E|-----------------------------------------|-----------------------------------------|

E|-----------------------------------------|-----------------------------------------|
B|-----------------------------------------|-----------------------------------------|
G|-----------7-------------------3---------|-----------5-------------------2---------|
D|------7---------7---------3---------3----|------5---------5---------2---------2----|
A|-5-------------------1-------------------|-3-------------------0-------------------|
E|-----------------------------------------|-----------------------------------------|

E|-----------------------------------------|-----------------------------------------|
B|-----------------------------------------|-----------------------------------------|
G|-----------3-----------------------------|-7----7----7----7----7----7----7----7----|
D|-----------3-----------------------------|-7----7----7----7----7----7----7----7----|
A|-1----1----1----1----3----3----3----3----|-5----5----5----5----5----5----5----5----|
E|-----------------------------------------|-----------------------------------------|

E|-----------------------------------------|---------------------0-------------------|
B|-----------3-------------------3---------|-----------3--------------3--------------|
G|------2---------2---------2---------2----|------2---------2--------------2---------|
D|-0---------------------------------------|------------------------------------0----|
A|---------------------3-------------------|-1---------------------------------------|
E|-----------------------------------------|-----------------------------------------|

E|-----------------------------------------|-----------------------------------------|
B|----------------1------------------------|-----------------------------------------|
G|-----------0-------------------2----7----|-7----7----7----7----7----7----7----7----|
D|------2-------------------2---------7----|-7----7----7----7----7----7----7----7----|
A|-3-------------------0--------------5----|-5----5----5----5----5----5----5----5----|
E|-----------------------------------------|-----------------------------------------|

E|-------------------------------------|---------------------------------|---------------------------------|
B|-------------------------------------|---------------------------------|---------------------------------|
G|-------------------------------------|-10---9-----10---9----7----------|-9----7-----9----7---------------|
D|---------------------------7----8----|---------------------------10----|-----------------------10---8----|
A|------------7----8----10-------------|---------------------------------|---------------------------------|
E|-10----10----------------------------|---------------------------------|---------------------------------|

E|-------------------------------------|------12--------13--------12--------10--------12--------10---|
B|-------------------------------------|-10--------10--------10--------8---------8---------8---------|
G|-10---9-----10---9----7---------12---|-------------------------------------------------------------|
D|---------------------------10--------|-------------------------------------------------------------|
A|-------------------------------------|-------------------------------------------------------------|
E|-------------------------------------|-------------------------------------------------------------|

E|------8---------10--------8----------------------------------|-10------12------13------12------8-------10------12------10------|
B|-6---------6---------6---------------------------------------|-----10------10------10--------------8-------8-------8-----------|
G|---------------------------------------------------%---------|-----------------------------%-------------------------------%---|
D|---------------------------------------------------%---------|-----------------------------%-------------------------------%---|
A|-------------------------------5----5----5----5---------3----|-----------------------------------------------------------------|
E|-------------------------------3----3----3----3---------1----|-----------------------------------------------------------------|

E|-6-------8-------10------8-------------------------------------|-------------------------------------------------------------------------|
B|-----6-------6-------6-----------------------------------------|-------------------------------------------------------------------------|
G|-----------------------------%-----------------------%---------|---------9-------10------9-------9---%-------7-------9-------7-------%---|
D|-----------------------------%-----------------------%---------|-----7-------7-------7-------7-------%---5-------5-------5-------5---%---|
A|---------------------------------5----5----5----5---------7----|-5-----------------------------------------------------------------------|
E|---------------------------------3----3----3----3---------5----|-------------------------------------------------------------------------|

E|---------------------------------------------------------------|-------------------------------------------------------------------------|
B|---------------------------------------------------------------|-------------------------------------------------------------------------|
G|---------5-------7-------5---%-----------------------%---------|---------9-------10------9-------9---%-------7-------9-------7-------%---|
D|-----3-------3-------3-------%-----------------------%---------|-----7-------7-------7-------7-------%---5-------5-------5-------5---%---|
A|-1-------------------------------5----5----5----5---------3----|-5-----------------------------------------------------------------------|
E|---------------------------------3----3----3----3---------1----|-------------------------------------------------------------------------|

E|---------------------------------------------------------------|-------------------------|
B|---------------------------------------------------------------|-------------------------|
G|---------5-------7-------5---%-----------------------%---------|-------------------------|
D|-----3-------3-------3-------%-----------------------%----5----|-5-----5-----5-----5-----|
A|-1-------------------------------5----5----5----5---------3----|-5-----5-----5-----5-----|
E|---------------------------------3----3----3----3--------------|-3-----3-----3-----3-----|

E|-------------------------|---------|-------------------------------------|---------------------------------|
B|-------------------------|---------|-------------------------------------|---------------------------------|
G|-------------------------|---------|-------------------------------------|-10---9-----10---9----7----10----|
D|-2-----2-----2-----2-----|-2-------|---------------------------7----8----|---------------------------------|
A|-2-----2-----2-----2-----|-2-------|------------7----8----10-------------|---------------------------------|
E|-0-----0-----0-----0-----|-0-------|-10----10----------------------------|---------------------------------|

E|---------------------------------|-------------------------------------|-----------------------------------------|
B|---------------------------------|-------------------------------------|-----------------------------------------|
G|-9----7-----9----7---------------|-10---9-----10---9----7---------12---|-----------3----3--------------3---------|
D|-----------------------10---8----|---------------------------10--------|-----------3----3--------------3---------|
A|---------------------------------|-------------------------------------|-1----1--------------1----1---------1----|
E|---------------------------------|-------------------------------------|-----------------------------------------|

E|-----------------------------------------|-----------------------------------------|
B|-----------------------------------------|-----------3-------------------3---------|
G|-----------5----5--------------5---------|------2---------2---------3--------------|
D|-----------5----5--------------5---------|-0-------------------3--------------3----|
A|-3----3--------------3----3---------3----|-----------------------------------------|
E|-----------------------------------------|-----------------------------------------|

E|-----------------------------------------|-----------------------------------------|
B|-----------------------------------------|-----------------------------------------|
G|-5----5----5----5----5----5----5----5----|-3----3----3----3----3----3----3----3----|
D|-5----5----5----5----5----5----5----5----|-3----3----3----3----3----3----3----3----|
A|-3----3----3----3----3----3----3----3----|-1----1----1----1----1----1----1----1----|
E|-----------------------------------------|-----------------------------------------|

E|-------------------------------------|-----------------------------------------|-----------------------------------------|
B|-------------------------------------|-----------------------------------------|-----------------------------------------|
G|-5----5----5----5----5----5----5-----|-----------7-------------------3---------|-----------5-------------------2---------|
D|-5----5----5----5----5----5----5-----|------7---------7---------3---------3----|------5---------5---------2---------2----|
A|-3----3----3----3----3----3----3-----|-5-------------------1-------------------|-3-------------------0-------------------|
E|-------------------------------------|-----------------------------------------|-----------------------------------------|

E|-----------------------------------------|-----------------------------------------|
B|-----------------------------------------|-----------------------------------------|
G|-----------3-------------------5---------|-7----7----7----7----7----7----7----7----|
D|------3---------3---------5---------5----|-7----7----7----7----7----7----7----7----|
A|-1-------------------3-------------------|-5----5----5----5----5----5----5----5----|
E|-----------------------------------------|-----------------------------------------|

E|-----------------------------------------|-----------------------------------------|
B|-----------------------------------------|-----------------------------------------|
G|-----------3-----------------------------|-7----7----7----7----7----7----7----7----|
D|-----------3-----------------------------|-7----7----7----7----7----7----7----7----|
A|-1----1----1----1----3----3----3----3----|-5----5----5----5----5----5----5----5----|
E|-----------------------------------------|-----------------------------------------|

E|-----------------------------------------|---------------------0-------------------|
B|-----------3-------------------3---------|-----------3--------------3--------------|
G|------2---------2---------2---------2----|------2---------2--------------2---------|
D|-0---------------------------------------|------------------------------------0----|
A|---------------------3-------------------|-1---------------------------------------|
E|-----------------------------------------|-----------------------------------------|

E|---------------|---------------------0---------------|-----------------------------------------|
B|---------------|-----------3--------------3----------|-----------2-------------------3---------|
G|-7------5------|------0---------0--------------0-----|------3---------3---------0---------0----|
D|-7------5------|-3-----------------------------------|-0---------------------------------------|
A|-5------3------|-1-----------------------------------|---------------------3-------------------|
E|---------------|-------------------------------------|-----------------------------------------|

E|---------------------0---------------|-----------------------------------------|---------------------0---------------|
B|-----------3--------------3----------|-----------2-------------------3---------|-----------3--------------3----------|
G|------0---------0--------------0-----|------3---------3---------0---------0----|------0---------0--------------0-----|
D|-------------------------------------|-0---------------------------------------|-------------------------------------|
A|-1-----------------------------------|---------------------3-------------------|-1-----------------------------------|
E|-------------------------------------|-----------------------------------------|-------------------------------------|

E|-----------------------------------------|----------------1-----------|
B|----------------1-------------------1----|-----------3---------7------|
G|-----------0-------------------0---------|------2---------------------|
D|------2-------------------2--------------|-0--------------------------|
A|-3-------------------0-------------------|----------------------------|
E|-----------------------------------------|----------------------------|
Iron Maiden - Como Estais Amigos
Iron Maiden - Como Estais Amigos.gp3