Iron Maiden - Como Estais Amigos (2)

Iron Maiden



Title: Como Estais Amigo
Album: Virtuals
Artist: Iron Maiden
Author: 

Track 1: Guitare 1
E|-----------1----0--------------1----0----|-----------1----0--------------1----0----|
B|-----------3-------------------3---------|-----------3-------------------3---------|
G|------2-------------------2--------------|------2-------------------2--------------|
D|-0-------------------0-------------------|-0-------------------0-------------------|
A|-----------------------------------------|-----------------------------------------|
E|-----------------------------------------|-----------------------------------------|

E|-----------1----0--------------1----0----|-----------1----0--------------1----0----|
B|-----------3-------------------3---------|-----------3-------------------3---------|
G|------2-------------------2--------------|------2-------------------2--------------|
D|-0-------------------0-------------------|-0-------------------0-------------------|
A|-----------------------------------------|-----------------------------------------|
E|-----------------------------------------|-----------------------------------------|

E|-----------1----0--------------1----0----|-----------1---0---------------------1----0----|
B|-----------3-------------------3---------|-----------3-------3---0-------------3---------|
G|------2-------------------0--------------|------0-------------------------2--------------|
D|-3---------------------------------------|---------------------------0-------------------|
A|---------------------3-------------------|-2-----------------2---------------------------|
E|-----------------------------------------|-----------------------------------------------|

E|-----------1----0--------------1----0----|-----------1----0--------------1---0--------|
B|-----------3-------------------3---------|-----------3-------------------3-------3----|
G|------2-------------------0--------------|------0-------------------3-----------------|
D|-3---------------------------------------|--------------------------------------------|
A|---------------------3-------------------|-2-------------------1-----------------1----|
E|-----------------------------------------|--------------------------------------------|

E|-----------1----0----|-----------1----0--------------1----0----|-----------1----0--------------1---0--------|
B|-----------3---------|-----------3-------------------3---------|-----------3-------------------3-------3----|
G|------2--------------|------2-------------------0--------------|------0-------------------3-----------------|
D|-0-------------------|-3---------------------------------------|--------------------------------------------|
A|---------------------|---------------------3-------------------|-2-------------------1-----------------1----|
E|---------------------|-----------------------------------------|--------------------------------------------|

E|-----------1----0----|-----------1----0--------------1----0----|-----------1----0--------------1---0--------|
B|-----------3---------|-----------3-------------------3---------|-----------3-------------------3-------3----|
G|------2--------------|------2-------------------0--------------|------0-------------------3-----------------|
D|-0-------------------|-3---------------------------------------|--------------------------------------------|
A|---------------------|---------------------3-------------------|-2-------------------1-----------------1----|
E|---------------------|-----------------------------------------|--------------------------------------------|

E|---------|---------|---------|---------|-----------1----0--------------1----0----|
B|---------|---------|---------|---------|-----------3-------------------3---------|
G|-%-------|-%-------|-%-------|-%-------|------2-------------------2--------------|
D|-%-------|-%-------|-%-------|-%-------|-0-------------------3-------------------|
A|---------|---------|---------|---------|-----------------------------------------|
E|---------|---------|---------|---------|-----------------------------------------|

E|-----------0----0------------------------|-----------------------------------------|
B|-----------1-----------------------------|-----------3-------------------5---------|
G|------0------------------------2----2----|-----------3-------------------5---------|
D|--------------------------2--------------|------3---------3---------5---------5----|
A|-3-------------------0-------------------|-1-------------------3-------------------|
E|-----------------------------------------|-----------------------------------------|

E|-----------1----0--------------1----0----|-----------0----0------------------------|
B|-----------3-------------------3---------|-----------1-----------------------------|
G|------2-------------------2--------------|------0------------------------2----2----|
D|-0-------------------3-------------------|--------------------------2--------------|
A|-----------------------------------------|-3-------------------0-------------------|
E|-----------------------------------------|-----------------------------------------|

E|-----------------------------------------|-----------1----0--------------1----0----|
B|-----------3-------------------5---------|-----------3-------------------3---------|
G|-----------3-------------------5---------|------2-------------------2--------------|
D|------3---------3---------5---------5----|-0-------------------0-------------------|
A|-1-------------------3-------------------|-----------------------------------------|
E|-----------------------------------------|-----------------------------------------|

E|-----------1----0--------------1----0----|-----------1----0------------------------|
B|-----------3-------------------3---------|-----------1----1-------------------1----|
G|------2-------------------2--------------|------0------------------------2----2----|
D|-0-------------------3-------------------|--------------------------2--------------|
A|-----------------------------------------|-3-------------------0-------------------|
E|-----------------------------------------|-----------------------------------------|

E|-----------------------------------------|-----------------------------------------|
B|-----------3-------------------5---------|-----------3-------------------1---------|
G|-----------3-------------------5---------|------2---------2---------0---------0----|
D|------3---------3---------5---------5----|-0---------------------------------------|
A|-1-------------------3-------------------|---------------------3-------------------|
E|-----------------------------------------|-----------------------------------------|

E|-----------------------------------------|-----------------------------------------|
B|-----------3-------------------5----3----|-----------3-------------------1---------|
G|------0---------0---------0--------------|------2---------2---------0---------0----|
D|-----------------------------------------|-0---------------------------------------|
A|-1-------------------1-------------------|---------------------3-------------------|
E|-----------------------------------------|-----------------------------------------|

E|-----------------------------------------|-----------------------------------------|
B|-----------3-------------------5----3----|-----------1-----------------------------|
G|------0---------0---------0--------------|-------------------------------2---------|
D|-----------------------------------------|------2---------2---------2---------2----|
A|-1-------------------1-------------------|-3-------------------0-------------------|
E|-----------------------------------------|-----------------------------------------|

E|-----------1----0--------------1----0----|-----------1----0--------------1----0----|
B|-----------3-------------------3---------|-----------3-------------------3---------|
G|------2-------------------2--------------|------2-------------------2--------------|
D|-0-------------------0-------------------|-0-------------------3-------------------|
A|-----------------------------------------|-----------------------------------------|
E|-----------------------------------------|-----------------------------------------|

E|-----------1----0--------------1---0-----------|-----------1----0--------------1----0----|
B|-----------3-------------------3-------3---0---|-----------3-------------------3---------|
G|------0-------------------0--------------------|------2-------------------2--------------|
D|-----------------------------------------------|-0-------------------3-------------------|
A|-3-------------------2-----------------2-------|-----------------------------------------|
E|-----------------------------------------------|-----------------------------------------|

E|-----------1----0--------------1---0-----------|-----------1----0--------------1----0----|
B|-----------3-------------------3-------3---0---|-----------3-------------------3---------|
G|------0-------------------0--------------------|------2-------------------2--------------|
D|-----------------------------------------------|-0-------------------3-------------------|
A|-3-------------------2-----------------2-------|-----------------------------------------|
E|-----------------------------------------------|-----------------------------------------|

E|-----------1----0--------------1---0-----------|-----------1----0--------------1----0----|
B|-----------3-------------------3-------3---0---|-----------3-------------------3---------|
G|------0-------------------0--------------------|------2-------------------2--------------|
D|-----------------------------------------------|-0-------------------3-------------------|
A|-3-------------------2-----------------2-------|-----------------------------------------|
E|-----------------------------------------------|-----------------------------------------|

E|-----------1----0--------------1---0-----------|-----------------------------------------|
B|-----------3-------------------3-------3---0---|-----------------------------------------|
G|------0-------------------0--------------------|-3----3----3----3----3----3----3----3----|
D|-----------------------------------------------|-3----3----3----3----3----3----3----3----|
A|-3-------------------2-----------------2-------|-1----1----1----1----1----1----1----1----|
E|-----------------------------------------------|-----------------------------------------|

E|-----------------------------------------|-----------------------------------------|
B|-----------------------------------------|-----------------------------------------|
G|-5----5----5----5----5----5----5----5----|-3----3----3----3----3----3----3----3----|
D|-5----5----5----5----5----5----5----5----|-3----3----3----3----3----3----3----3----|
A|-3----3----3----3----3----3----3----3----|-1----1----1----1----1----1----1----1----|
E|-----------------------------------------|-----------------------------------------|

E|-----------------------------------------|-----------------------------------------|
B|-----------------------------------------|-----------------------------------------|
G|-5----5----5----5----5----5----5----5----|-3----3----3----3----3----3----3----3----|
D|-5----5----5----5----5----5----5----5----|-3----3----3----3----3----3----3----3----|
A|-3----3----3----3----3----3----3----3----|-1----1----1----1----1----1----1----1----|
E|-----------------------------------------|-----------------------------------------|

E|-----------------------------------------|-----------------------------------------|
B|-----------------------------------------|-----------------------------------------|
G|-7----7----7----7----7----7----7----7----|-3----3----3----3----3----3----3----3----|
D|-7----7----7----7----7----7----7----7----|-3----3----3----3----3----3----3----3----|
A|-5----5----5----5----5----5----5----5----|-1----1----1----1----1----1----1----1----|
E|-----------------------------------------|-----------------------------------------|

E|-----------------------------------------|-----------------------------------------|
B|-----------------------------------------|-----------------------------------------|
G|-5----5----5----5----5----5----5----5----|-7----7----7----7----7----7----7----7----|
D|-5----5----5----5----5----5----5----5----|-7----7----7----7----7----7----7----7----|
A|-3----3----3----3----3----3----3----3----|-5----5----5----5----5----5----5----5----|
E|-----------------------------------------|-----------------------------------------|

E|-----------------------------------------|-----------------------------------------|
B|-----------------------------------------|-----------------------------------------|
G|-5----5----5----5------------------------|-3----3----3----3----5----5----5----5----|
D|-5----5----5----5----2----2----2----2----|-3----3----3----3----5----5----5----5----|
A|-3----3----3----3----0----0----0----0----|-1----1----1----1----3----3----3----3----|
E|-----------------------------------------|-----------------------------------------|

E|-----------------------------------------|-----------------------------------------|
B|-----------------------------------------|-----------------------------------------|
G|-7----7----7----7----7----7----7----7----|-5----5----5----5------------------------|
D|-7----7----7----7----7----7----7----7----|-5----5----5----5----2----2----2----2----|
A|-5----5----5----5----5----5----5----5----|-3----3----3----3----0----0----0----0----|
E|-----------------------------------------|-----------------------------------------|

E|-----------------------------------------|-----------------------------------------|
B|-----------------------------------------|-----------------------------------------|
G|-3----3----3----3----5----5----5----5----|-7----7----7----7----7----7----7----7----|
D|-3----3----3----3----5----5----5----5----|-7----7----7----7----7----7----7----7----|
A|-1----1----1----1----3----3----3----3----|-5----5----5----5----5----5----5----5----|
E|-----------------------------------------|-----------------------------------------|

E|-----------------------------------------|-----------------------------------------|
B|-----------------------------------------|-----------------------------------------|
G|-5----5----5----5------------------------|-3----3----3----3----5----5----5----5----|
D|-5----5----5----5----2----2----2----2----|-3----3----3----3----5----5----5----5----|
A|-3----3----3----3----0----0----0----0----|-1----1----1----1----3----3----3----3----|
E|-----------------------------------------|-----------------------------------------|

E|-----------------------------------------|-----------------------------------------|
B|-----------------------------------------|-----------------------------------------|
G|-7----7----7----7----7----7----7----7----|-5----5----5----5------------------------|
D|-7----7----7----7----7----7----7----7----|-5----5----5----5----2----2----2----2----|
A|-5----5----5----5----5----5----5----5----|-3----3----3----3----0----0----0----0----|
E|-----------------------------------------|-----------------------------------------|

E|-----------------------------------------|---------------|---------|---------|
B|-----------------------------------------|---------------|---------|---------|
G|-3----3----3----3----5----5----5----5----|-3------5------|-%-------|-%-------|
D|-3----3----3----3----5----5----5----5----|-3------5------|-%-------|-%-------|
A|-1----1----1----1----3----3----3----3----|-1------3------|---------|---------|
E|-----------------------------------------|---------------|---------|---------|
Iron Maiden - Como Estais Amigos (2)
Iron Maiden - Como Estais Amigos (2).gp4