Iron Maiden - Cross Eyed Mary

Iron Maiden - Cross Eyed Mary

Iron Maiden



Title: Crossed Eyed Mary
Album: Piece of Mind
Artist: Iron Maiden
Author: Jethro Tull

Track 1: Guitare 1
E|---------|---------|---------|---------|---------|---------|---------|---------|---------|
B|---------|---------|---------|---------|---------|---------|---------|---------|---------|
G|-4-------|-4-------|-4-------|-4-------|-5-------|-5-------|-5-------|-5-------|-7-------|
D|-4-------|-4-------|-4-------|-4-------|-5-------|-5-------|-5-------|-5-------|-7-------|
A|-2-------|-2-------|-2-------|-2-------|-3-------|-3-------|-3-------|-3-------|-5-------|
E|---------|---------|---------|---------|---------|---------|---------|---------|---------|

E|---------|---------|---------|---------|---------|---------|---------|-------------------------------------------------------|
B|---------|---------|---------|---------|---------|---------|---------|-------------------------------------------------------|
G|-7-------|-7-------|-7-------|-9-------|-9-------|-10------|-10------|---------%---------------%---------------%-------------|
D|-7-------|-7-------|-7-------|-9-------|-9-------|-10------|-10------|-9---9---%---X---9---9---%---X---9---9---%---X---9-----|
A|-5-------|-5-------|-5-------|-7-------|-7-------|-8-------|-8-------|-7---7-------X---7---7-------X---7---7-------X---7-----|
E|---------|---------|---------|---------|---------|---------|---------|-------------------------------------------------------|

E|-----------------------------------------------------------------|-------------------------------------------------------|
B|-----------------------------------------------------------------|-------------------------------------------------------|
G|---------%---------------%---------------%---------------%-------|---------%---------------%---------------%-------------|
D|---------%---------------%---------------%---------------%-------|-9---9---%---X---9---9---%---X---9---9---%---X---9-----|
A|-8---8-------X---8---8-------X---8---8-------X---8---8-------X---|-7---7-------X---7---7-------X---7---7-------X---7-----|
E|-6---6-------X---6---6-------X---6---6-------X---6---6-------X---|-------------------------------------------------------|

E|-----------------------------------------------------------------|-----------------------------------------------------------------|
B|-----------------------------------------------------------------|-----------------------------------------------------------------|
G|---------%---------------%---------------%---------------%-------|---------%---------------%---------------%---------------%-------|
D|---------%---------------%---------------%---------------%-------|-5---5---%---X---5---5---%---X---5---5---%---X---5---5---%---X---|
A|-8---8-------X---8---8-------X---8---8-------X---8---8-------X---|-3---3-------X---3---3-------X---3---3-------X---3---3-------X---|
E|-6---6-------X---6---6-------X---6---6-------X---6---6-------X---|-----------------------------------------------------------------|

E|-----------------------------------------------------------------|--------------------------------------------------------------|
B|-----------------------------------------------------------------|--------------------------------------------------------------|
G|---------%---------------%---------------%---------------%-------|--------------------------------------------------------------|
D|---------%---------------%---------------%---------------%-------|-12--12--X---X---12--12--X---X---12--12--X---X---12--12--11---|
A|-6---6-------X---6---6-------X---6---6-------X---6---6-------X---|--------------------------------------------------------------|
E|-4---4-------X---4---4-------X---4---4-------X---4---4-------X---|--------------------------------------------------------------|

E|-----------------------------------------------------------------|-----------------------------------------------------------|
B|-----------------------------------------------------------------|-----------------------------------------------------------|
G|-----------------------------------------------------------------|-----------------------------------------------------------|
D|-10--10--X---X---10--10--X---X---10--10--X---X---10--10--X---X---|-10--10--X---X---10--10--X---X---10--10--X---X---10---9----|
A|-----------------------------------------------------------------|-----------------------------------------------------------|
E|-----------------------------------------------------------------|-----------------------------------------------------------|

E|-----------------------------------------------------------------|---------|---------|
B|-----------------------------------------------------------------|---------|---------|
G|-----------------------------------------------------------------|---------|---------|
D|-8---8---X---X---8---8---X---X---8---8---X---X---8---8---X---X---|-7-------|-9-------|
A|-----------------------------------------------------------------|---------|-7-------|
E|-----------------------------------------------------------------|---------|-0-------|

E|----------------------------|----------------------------|----------------------------|
B|----------------------------|----------------------------|----------------------------|
G|----------------%----%------|----------------%----%------|----------------%----%------|
D|-2-----2---2----%----%------|-3-----3---3----%----%------|-5-----5---5----%----%------|
A|-2-----2---2----------------|-3-----3---3----------------|-5-----5---5----------------|
E|-0-----0---0----------------|-1-----1---1----------------|-3-----3---3----------------|

E|--------------------------------------------------|--------------------------------------------------|
B|--------------------------------------------------|--------------------------------------------------|
G|-7-----7---7--------------------------------------|-2-------------------------------------------%----|
D|-7-----7---7--------------------2-----------------|-2-----------------2--------------------5----%----|
A|-5-----5---5----0---3---3---0--------2---3--------|-0-----0---3---0-------0---3--------X---5---------|
E|---------------------------------------------3----|-------------------------------3----X---3---------|

E|--------------------------------------------------|--------------------------------------------------|
B|--------------------------------------------------|--------------------------------------------------|
G|-2-------------------------------------------%----|-2-------------------------------------------%----|
D|-2-----------------2--------------------5----%----|-2-----------------2--------------------5----%----|
A|-0-----0---3---0-------0---3--------X---5---------|-0-----0---3---0-------0---3--------X---5---------|
E|-------------------------------3----X---3---------|-------------------------------3----X---3---------|

E|--------------------------------------------------|--------------------------------------------------|
B|--------------------------------------------------|--------------------------------------------------|
G|-2-------------------------------------------%----|-3-------------------------------------------%----|
D|-2-----------------2--------------------5----%----|-3-----------------3--------------------6----%----|
A|-0-----0---3---0-------0---3--------X---5---------|-1-----1---4---1-------1---4--------X---6---------|
E|-------------------------------3----X---3---------|-------------------------------4----X---4---------|

E|--------------------------------------------------|--------------------------------------------------|
B|--------------------------------------------------|--------------------------------------------------|
G|-3-------------------------------------------%----|-3-------------------------------------------%----|
D|-3-----------------3--------------------6----%----|-3-----------------3--------------------6----%----|
A|-1-----1---4---1-------1---4--------X---6---------|-1-----1---4---1-------1---4--------X---6---------|
E|-------------------------------4----X---4---------|-------------------------------4----X---4---------|

E|----------------------------------|-----------------------|----------------------------|
B|----------------------------------|-----------------------|----------------------------|
G|-5------5-------------------5-----|-%---------------------|----------------%----%------|
D|-5------5---7---7-----------3-----|-%---4---4-------4-----|-2-----2---2----%----%------|
A|-3------3---5---5---3---5---------|-----2---2---0---2-----|-2-----2---2----------------|
E|----------------------------------|-----------------------|-0-----0---0----------------|

E|----------------------------|----------------------------|--------------------------------------------------|
B|----------------------------|----------------------------|--------------------------------------------------|
G|----------------%----%------|----------------%----%------|-7-----7---7--------------------------------------|
D|-3-----3---3----%----%------|-5-----5---5----%----%------|-7-----7---7--------------------2-----------------|
A|-3-----3---3----------------|-5-----5---5----------------|-5-----5---5----0---3---3---0--------2---3--------|
E|-1-----1---1----------------|-3-----3---3----------------|---------------------------------------------3----|

E|--------------------------------------------------|--------------------------------------------------|
B|--------------------------------------------------|--------------------------------------------------|
G|-2-------------------------------------------%----|-2-------------------------------------------%----|
D|-2-----------------2--------------------5----%----|-2-----------------2--------------------5----%----|
A|-0-----0---3---0-------0---3--------X---5---------|-0-----0---3---0-------0---3--------X---5---------|
E|-------------------------------3----X---3---------|-------------------------------3----X---3---------|

E|--------------------------------------------------|--------------------------------------------------|
B|--------------------------------------------------|--------------------------------------------------|
G|-2-------------------------------------------%----|-2-------------------------------------------%----|
D|-2-----------------2--------------------5----%----|-2-----------------2--------------------5----%----|
A|-0-----0---3---0-------0---3--------X---5---------|-0-----0---3---0-------0---3--------X---5---------|
E|-------------------------------3----X---3---------|-------------------------------3----X---3---------|

E|--------------------------------------------------|--------------------------------------------------|
B|--------------------------------------------------|--------------------------------------------------|
G|-3-------------------------------------------%----|-3-------------------------------------------%----|
D|-3-----------------3--------------------6----%----|-3-----------------3--------------------6----%----|
A|-1-----1---4---1-------1---4--------X---6---------|-1-----1---4---1-------1---4--------X---6---------|
E|-------------------------------4----X---4---------|-------------------------------4----X---4---------|

E|--------------------------------------------------|----------------------------------|
B|--------------------------------------------------|----------------------------------|
G|-3-------------------------------------------%----|-5------5-------------------5-----|
D|-3-----------------3--------------------6----%----|-5------5---7---7-----------3-----|
A|-1-----1---4---1-------1---4--------X---6---------|-3------3---5---5---3---5---------|
E|-------------------------------4----X---4---------|----------------------------------|

E|-----------------------|----------------------------------|---------------------------------------------|
B|-----------------------|----------------------------------|-----------------------------------------0---|
G|-%---------------------|-7------5---7---5----5------------|-5---7---7---5---7---5-----------------------|
D|-%---4---4-------4-----|--------------------------5---7---|-------------------------7----7------7-------|
A|-----2---2---0---2-----|----------------------------------|---------------------------------------------|
E|-----------------------|----------------------------------|---------------------------------------------|

E|-------------------------------------------------|------------------------------------------|
B|-8-----10--8--------------------------------7----|-7-----5---7---5-------5------------------|
G|---------------9---8---7-----------8---7---------|-------------------7-------5--------------|
D|---------------------------10--7-----------------|-------------------------------7----7-----|
A|-------------------------------------------------|------------------------------------------|
E|-------------------------------------------------|------------------------------------------|

E|-----------------------------------------------------------------|---------------------------------------6---9---11--9---|
B|-2---4---4---4---4---6---6---6---6---9---9---9---9---11--11--11--|-11--14--14--14--14--11--11--11--11--------------------|
G|-----------------------------------------------------------------|-------------------------------------------------------|
D|-----------------------------------------------------------------|-------------------------------------------------------|
A|-----------------------------------------------------------------|-------------------------------------------------------|
E|-----------------------------------------------------------------|-------------------------------------------------------|

E|-8---9---8---6---8---6---4---6---4---1---4---1----------------|----------------------------------|
B|-------------------------------------------------4---2--------|----------------------------------|
G|---------------------------------------------------------3----|-5------5-------------------5-----|
D|--------------------------------------------------------------|-5------5---7---7-----------3-----|
A|--------------------------------------------------------------|-3------3---5---5---3---5---------|
E|--------------------------------------------------------------|----------------------------------|

E|-----------------------|-----------------------------------------------------|--------------------------------------------------|
B|-----------------------|-----------------------------------------------------|--------------------------------------------------|
G|-%---------------------|----------------%----%---------------------------%---|----------------%-----------------%---------------|
D|-%---4---4-------4-----|-2-----2---2----%----%---------------------------%---|-3-----3---3----%-----------------%---------------|
A|-----2---2---0---2-----|-2-----2---2-------------------------2---------------|-3-----3---3--------------------------0---2-------|
E|-----------------------|-0-----0---0-------------0---3---0-------0---3-------|-1-----1---1---------1---0----3---------------3---|

E|-----------------------------------------------|--------------------------------------------------|
B|-----------------------------------------------|--------------------------------------------------|
G|----------------%----%-------------------------|-7-----7---7--------------------------------------|
D|-5-----5---5----%----%-------------------------|-7-----7---7--------------------2-----------------|
A|-5-----5---5--------------3---2---3---2--------|-5-----5---5----0---3---3---0--------2---3--------|
E|-3-----3---3------------------------------3----|---------------------------------------------3----|

E|--------------------------------------------------|--------------------------------------------------|
B|--------------------------------------------------|--------------------------------------------------|
G|-2-------------------------------------------%----|-2-------------------------------------------%----|
D|-2-----------------2--------------------5----%----|-2-----------------2--------------------5----%----|
A|-0-----0---3---0-------0---3--------X---5---------|-0-----0---3---0-------0---3--------X---5---------|
E|-------------------------------3----X---3---------|-------------------------------3----X---3---------|

E|--------------------------------------------------|--------------------------------------------------|
B|--------------------------------------------------|--------------------------------------------------|
G|-2-------------------------------------------%----|-2-------------------------------------------%----|
D|-2-----------------2--------------------5----%----|-2-----------------2--------------------5----%----|
A|-0-----0---3---0-------0---3--------X---5---------|-0-----0---3---0-------0---3--------X---5---------|
E|-------------------------------3----X---3---------|-------------------------------3----X---3---------|

E|--------------------------------------------------|--------------------------------------------------|
B|--------------------------------------------------|--------------------------------------------------|
G|-3-------------------------------------------%----|-3-------------------------------------------%----|
D|-3-----------------3--------------------6----%----|-3-----------------3--------------------6----%----|
A|-1-----1---4---1-------1---4--------X---6---------|-1-----1---4---1-------1---4--------X---6---------|
E|-------------------------------4----X---4---------|-------------------------------4----X---4---------|

E|--------------------------------------------------|----------------------------------|
B|--------------------------------------------------|----------------------------------|
G|-3-------------------------------------------%----|-5------5-------------------5-----|
D|-3-----------------3--------------------6----%----|-5------5---7---7-----------3-----|
A|-1-----1---4---1-------1---4--------X---6---------|-3------3---5---5---3---5---------|
E|-------------------------------4----X---4---------|----------------------------------|

E|-----------------------|----------------------------|----------------------------|
B|-----------------------|----------------------------|----------------------------|
G|-%---------------------|----------------%----%------|-5-----5---5----%----%------|
D|-%---4---4-------4-----|-2-----2---2----%----%------|-5-----5---5----%----%------|
A|-----2---2---0---2-----|-2-----2---2----------------|-3-----3---3----------------|
E|-----------------------|-0-----0---0----------------|----------------------------|

E|----------------------------|-----------------------------------------|----------------------------|
B|----------------------------|-----------------------------------------|----------------------------|
G|-7-----7---7----%----%------|-9-----9---9----%----10----10--10---%----|-9-----9---9----%-----------|
D|-7-----7---7----%----%------|-9-----9---9----%----10----10--10---%----|-9-----9---9----%----8------|
A|-5-----5---5----------------|-7-----7---7---------8-----8---8---------|-7-----7---7---------8------|
E|----------------------------|-----------------------------------------|---------------------6------|

E|---------|---------|---------|---------|---------|---------|---------|---------|---------|
B|---------|---------|---------|---------|---------|---------|---------|---------|---------|
G|---------|---------|---------|---------|---------|---------|-9-------|-9-------|-9-------|
D|-8-------|-8-------|-10------|-10------|-12------|-12------|-9-------|-9-------|-9-------|
A|-8-------|-8-------|-10------|-10------|-12------|-12------|-7-------|-7-------|-7-------|
E|-6-------|-6-------|-8-------|-8-------|-10------|-10------|---------|---------|---------|

E|---------|---------|
B|---------|---------|
G|---------|-%-------|
D|---------|-%-------|
A|---------|---------|
E|-0-------|---------|
Iron Maiden - Cross Eyed Mary
Iron Maiden - Cross Eyed Mary.gp3