Iron Maiden - Dance of Death (3)

Iron Maiden - Dance of Death (3)

Iron Maiden



Title: Dance Of Death
Album: Dance Of Death
Artist: Iron Maiden
Author: 

Track 1: Dist. Guitar 1
E|---------------------------|---------------------------|---------------------------|
B|---------------------------|---------------------------|---------------------------|
G|-9---------9---------9-----|-11--------11--------11----|-7---------7---------7-----|
D|------9---------9----------|------12--------12---------|------7---------7----------|
A|-7-------------------------|-9-------------------------|-5-------------------------|
E|---------------------------|---------------------------|---------------------------|

E|---------------------------|---------------------------|---------------------------|
B|---------------------------|---------------------------|---------------------------|
G|-5---------5---------5-----|-5---------5---------5-----|-7---------7---------7-----|
D|------5---------5----------|------5---------5----------|------7---------7----------|
A|-3-------------------------|-3-------------------------|-5-------------------------|
E|---------------------------|---------------------------|---------------------------|

E|---------------------------|---------------------------|---------|---------|-----------------------|
B|---------------------------|---------------------------|---------|-7-------|-8-----8----10---8-----|
G|-9---------9---------9-----|-9---------9---------9-----|-9-------|---------|-----------------------|
D|------9---------9----------|------9---------9----------|---------|---------|-----------------------|
A|-7-------------------------|-7-------------------------|---------|---------|-----------------------|
E|---------------------------|---------------------------|---------|---------|-----------------------|

E|---------|-------7-----7-----|-----------------------|---------|---------|-------7-----7-----|
B|---------|-------------------|-10----10---8----7-----|---------|---------|-------------------|
G|-9-------|-%-----------------|-----------------------|-9-------|-9-------|-%-----------------|
D|---------|-%-----------------|-----------------------|---------|---------|-%-----------------|
A|---------|-------------------|-----------------------|---------|---------|-------------------|
E|---------|-------------------|-----------------------|---------|---------|-------------------|

E|-10----10---7----------|-----------------------|---------|-------7-----7-----|-----------------------|
B|-----------------10----|-8-----8----10---8-----|---------|-------------------|-10----10---8----7-----|
G|-----------------------|-----------------------|-9-------|-%-----------------|-----------------------|
D|-----------------------|-----------------------|---------|-%-----------------|-----------------------|
A|-----------------------|-----------------------|---------|-------------------|-----------------------|
E|-----------------------|-----------------------|---------|-------------------|-----------------------|

E|---------|---------|-------------------------------|-------------------------------|
B|---------|---------|-------------------------------|-------------------------------|
G|-9-------|-9-------|------9---------9---------%----|------11--------11--------%----|
D|---------|---------|-----------9--------------%----|-----------12-------------%----|
A|---------|---------|-7-------------------7---------|-9-------------------9---------|
E|---------|---------|-------------------------------|-------------------------------|

E|-------------------------------|-------------------------------|-------------------------------|
B|-------------------------------|-------------------------------|-------------------------------|
G|------7---------7---------%----|------5---------5---------%----|------5---------5---------%----|
D|-----------7--------------%----|-----------5--------------%----|-----------5--------------%----|
A|-5-------------------5---------|-3-------------------3---------|-3-------------------3---------|
E|-------------------------------|-------------------------------|-------------------------------|

E|-------------------------------|-------------------------------|-------------------------------|
B|-------------------------------|-------------------------------|-------------------------------|
G|------7---------7---------%----|------9---------9---------%----|------9---------9---------%----|
D|-----------7--------------%----|-----------9--------------%----|-----------9--------------%----|
A|-5-------------------5---------|-7-------------------7---------|-7-------------------7---------|
E|-------------------------------|-------------------------------|-------------------------------|

E|-------------------------------|-------------------------------|-------------------------------|
B|-------------------------------|-------------------------------|-------------------------------|
G|------9---------9---------%----|------11--------11--------%----|------7---------7---------%----|
D|-----------9--------------%----|-----------12-------------%----|-----------7--------------%----|
A|-7-------------------7---------|-9-------------------9---------|-5-------------------5---------|
E|-------------------------------|-------------------------------|-------------------------------|

E|-------------------------------|-------------------------------|-------------------------------|
B|-------------------------------|-------------------------------|-------------------------------|
G|------2---------2---------%----|------5---------5---------%----|------7---------7---------%----|
D|-----------2--------------%----|-----------5--------------%----|-----------7--------------%----|
A|-0-------------------0---------|-3-------------------3---------|-5-------------------5---------|
E|-------------------------------|-------------------------------|-------------------------------|

E|-------------------------------|-------------------------------|-------------------------------|
B|-------------------------------|-------------------------------|-------------------------------|
G|------9---------9---------%----|------9---------9---------%----|------9---------9---------%----|
D|-----------9--------------%----|-----------9--------------%----|-----------9--------------%----|
A|-7-------------------7---------|-7-------------------7---------|-7-------------------7---------|
E|-------------------------------|-------------------------------|-------------------------------|

E|-------------------------------|-------------------------------|-------------------------------|
B|-------------------------------|-------------------------------|-------------------------------|
G|------11--------11--------%----|------7---------7---------%----|------5---------5---------%----|
D|-----------12-------------%----|-----------7--------------%----|-----------5--------------%----|
A|-9-------------------9---------|-5-------------------5---------|-3-------------------3---------|
E|-------------------------------|-------------------------------|-------------------------------|

E|-------------------------------|-------------------------------|-------------------------------|
B|-------------------------------|-------------------------------|-------------------------------|
G|------5---------5---------%----|------7---------7---------%----|------9---------9---------%----|
D|-----------5--------------%----|-----------7--------------%----|-----------9--------------%----|
A|-3-------------------3---------|-5-------------------5---------|-7-------------------7---------|
E|-------------------------------|-------------------------------|-------------------------------|

E|-------------------------------|-------------------------------|-------------------------------|
B|-------------------------------|-------------------------------|-------------------------------|
G|------9---------9---------%----|------9---------9---------%----|------11--------11--------%----|
D|-----------9--------------%----|-----------9--------------%----|-----------12-------------%----|
A|-7-------------------7---------|-7-------------------7---------|-9-------------------9---------|
E|-------------------------------|-------------------------------|-------------------------------|

E|-------------------------------|-------------------------------|-------------------------------|
B|-------------------------------|-------------------------------|-------------------------------|
G|------7---------7---------%----|------2---------2---------%----|------5---------5---------%----|
D|-----------7--------------%----|-----------2--------------%----|-----------5--------------%----|
A|-5-------------------5---------|-0-------------------0---------|-3-------------------3---------|
E|-------------------------------|-------------------------------|-------------------------------|

E|-------------------------------|-------------------------------|-------------------------------|
B|-------------------------------|-------------------------------|-------------------------------|
G|------7---------7---------%----|------9---------9---------%----|------9---------9---------%----|
D|-----------7--------------%----|-----------9--------------%----|-----------9--------------%----|
A|-5-------------------5---------|-7-------------------7---------|-7-------------------7---------|
E|-------------------------------|-------------------------------|-------------------------------|

E|-------------------------------|-------------------------------|-------------------------------|
B|-------------------------------|-------------------------------|-------------------------------|
G|-------------------------------|-------------------------------|-------------------------------|
D|-9----9----9----9----9----9----|-12---12---12---12---12---12---|-7----7----7----7----7----7----|
A|-7----7----7----7----7----7----|-9----9----9----9----9----9----|-5----5----5----5----5----5----|
E|-------------------------------|-------------------------------|-------------------------------|

E|-------------------------------|-------------------------------|-------------------------------|
B|-------------------------------|-------------------------------|-------------------------------|
G|-------------------------------|-------------------------------|-------------------------------|
D|-5----5----5----5----5----5----|-5----5----5----5----5----5----|-7----7----7----7----7----7----|
A|-3----3----3----3----3----3----|-3----3----3----3----3----3----|-5----5----5----5----5----5----|
E|-------------------------------|-------------------------------|-------------------------------|

E|-------------------------------|-------------------------------|-------------------------------|
B|-------------------------------|-------------------------------|-------------------------------|
G|-------------------------------|-7-----------------------------|-------------------------------|
D|-9----9----9----9----9----9----|------10---9----7----9----10---|-9----9----9----9----9----9----|
A|-7----7----7----7----7----7----|-------------------------------|-7----7----7----7----7----7----|
E|-------------------------------|-------------------------------|-------------------------------|

E|-------------------------------|-------------------------------|-------------------------------|
B|-------------------------------|-------------------------------|-------------------------------|
G|-------------------------------|-------------------------------|-------------------------------|
D|-12---12---12---12---12---12---|-7----7----7----7----7----7----|-2----2----2----2----2----2----|
A|-9----9----9----9----9----9----|-5----5----5----5----5----5----|-0----0----0----0----0----0----|
E|-------------------------------|-------------------------------|-------------------------------|

E|-------------------------------|-------------------------------|-------------------------------|
B|-------------------------------|-------------------------------|-------------------------------|
G|-------------------------------|-------------------------------|-------------------------------|
D|-5----5----5----5----5----5----|-7----7----7----7----7----7----|-9----9----9----9----9----9----|
A|-3----3----3----3----3----3----|-5----5----5----5----5----5----|-7----7----7----7----7----7----|
E|-------------------------------|-------------------------------|-------------------------------|

E|-------------------------------|-------------------------------|-------------------------------|
B|-------------------------------|-------------------------------|-------------------------------|
G|-7-----------------------------|-------------------------------|-------------------------------|
D|------10---9----7----9----10---|-9----9----9----9----9----9----|-12---12---12---12---12---12---|
A|-------------------------------|-7----7----7----7----7----7----|-9----9----9----9----9----9----|
E|-------------------------------|-------------------------------|-------------------------------|

E|-------------------------------|-------------------------------|-------------------------------|
B|-------------------------------|-------------------------------|-------------------------------|
G|-------------------------------|-------------------------------|-------------------------------|
D|-7----7----7----7----7----7----|-5----5----5----5----5----5----|-5----5----5----5----5----5----|
A|-5----5----5----5----5----5----|-3----3----3----3----3----3----|-3----3----3----3----3----3----|
E|-------------------------------|-------------------------------|-------------------------------|

E|-------------------------------|-------------------------------|-------------------------------|
B|-------------------------------|-------------------------------|-------------------------------|
G|-------------------------------|-------------------------------|-7-----------------------------|
D|-7----7----7----7----7----7----|-9----9----9----9----9----9----|------10---9----7----9----10---|
A|-5----5----5----5----5----5----|-7----7----7----7----7----7----|-------------------------------|
E|-------------------------------|-------------------------------|-------------------------------|

E|-------------------------------|-------------------------------|-------------------------------|
B|-------------------------------|-------------------------------|-------------------------------|
G|-------------------------------|-------------------------------|-------------------------------|
D|-9----9----9----9----9----9----|-12---12---12---12---12---12---|-7----7----7----7----7----7----|
A|-7----7----7----7----7----7----|-9----9----9----9----9----9----|-5----5----5----5----5----5----|
E|-------------------------------|-------------------------------|-------------------------------|

E|-------------------------------|-------------------------------|-------------------------------|
B|-------------------------------|-------------------------------|-------------------------------|
G|-------------------------------|-------------------------------|-------------------------------|
D|-2----2----2----2----2----2----|-5----5----5----5----5----5----|-7----7----7----7----7----7----|
A|-0----0----0----0----0----0----|-3----3----3----3----3----3----|-5----5----5----5----5----5----|
E|-------------------------------|-------------------------------|-------------------------------|

E|-0-----0----0----0-----0----0----|-3-----3----3----0-----0----0----|-0-----0----0----0-----0----0----|
B|---------------------------------|-----------------3-----3----3----|---------------------------------|
G|-0-----0----0----0-----0----0----|-0-----0----0----0-----0----0----|-0-----0----0----0-----0----0----|
D|-2-----2----2----2-----2----2----|-2-----2----2----2-----2----2----|-2-----2----2----2-----2----2----|
A|-2-----2----2----2-----2----2----|-2-----2----2----2-----2----2----|-2-----2----2----2-----2----2----|
E|-0-----0----0----0-----0----0----|-0-----0----0----0-----0----0----|-0-----0----0----0-----0----0----|

E|-3-----3----3----0-----0----0----|-0-----0----0----0-----0----0----|---------------------------------|
B|-----------------3-----3----3----|-0-----0----0----0-----0----0----|---------------------------------|
G|-0-----0----0----0-----0----0----|-0-----0----0----0-----0----0----|-11----11---11---11----11---11---|
D|-2-----2----2----2-----2----2----|-2-----2----2----2-----2----2----|-12----12---12---12----12---12---|
A|-2-----2----2----2-----2----2----|-2-----2----2----2-----2----2----|-9-----9----9----9-----9----9----|
E|-0-----0----0----0-----0----0----|-0-----0----0----0-----0----0----|---------------------------------|

E|---------------------------------|---------------------------------|---------------------------------|
B|-0-----0----0----0-----0----0----|-0-----0----0----0-----0----0----|-0-----0----0----0-----0----0----|
G|-7-----7----7----7-----7----7----|-2-----2----2----2-----2----2----|-5-----5----5----5-----5----5----|
D|-7-----7----7----7-----7----7----|-2-----2----2----2-----2----2----|-5-----5----5----5-----5----5----|
A|-5-----5----5----5-----5----5----|-0-----0----0----0-----0----0----|-3-----3----3----3-----3----3----|
E|---------------------------------|---------------------------------|---------------------------------|

E|---------------------------------|-0-----0----0----0-----0----0----|-3-----3----3----0-----0----0----|
B|-0-----0----0----0-----0----0----|---------------------------------|-----------------3-----3----3----|
G|-7-----7----7----7-----7----7----|-0-----0----0----0-----0----0----|-0-----0----0----0-----0----0----|
D|-7-----7----7----7-----7----7----|-2-----2----2----2-----2----2----|-2-----2----2----2-----2----2----|
A|-5-----5----5----5-----5----5----|-2-----2----2----2-----2----2----|-2-----2----2----2-----2----2----|
E|---------------------------------|-0-----0----0----0-----0----0----|-0-----0----0----0-----0----0----|

E|-0-----0----0----0-----0----0----|---------------------------------|---------------------------------|
B|-0-----0----0----0-----0----0----|---------------------------------|-0-----0----0----0-----0----0----|
G|-0-----0----0----0-----0----0----|-11----11---11---11----11---11---|-7-----7----7----7-----7----7----|
D|-2-----2----2----2-----2----2----|-12----12---12---12----12---12---|-7-----7----7----7-----7----7----|
A|-2-----2----2----2-----2----2----|-9-----9----9----9-----9----9----|-5-----5----5----5-----5----5----|
E|-0-----0----0----0-----0----0----|---------------------------------|---------------------------------|

E|---------------------------------|---------------------------------|---------------------------------|
B|-0-----0----0----0-----0----0----|-0-----0----0----0-----0----0----|-0-----0----0----0-----0----0----|
G|-2-----2----2----2-----2----2----|-5-----5----5----5-----5----5----|-7-----7----7----7-----7----7----|
D|-2-----2----2----2-----2----2----|-5-----5----5----5-----5----5----|-7-----7----7----7-----7----7----|
A|-0-----0----0----0-----0----0----|-3-----3----3----3-----3----3----|-5-----5----5----5-----5----5----|
E|---------------------------------|---------------------------------|---------------------------------|

E|-0-----0----0----0-----0----0----|-3-----3----3----0-----0----0----|-0-----0----0----0-----0----0----|
B|---------------------------------|-----------------3-----3----3----|-0-----0----0----0-----0----0----|
G|-0-----0----0----0-----0----0----|-0-----0----0----0-----0----0----|-0-----0----0----0-----0----0----|
D|-2-----2----2----2-----2----2----|-2-----2----2----2-----2----2----|-2-----2----2----2-----2----2----|
A|-2-----2----2----2-----2----2----|-2-----2----2----2-----2----2----|-2-----2----2----2-----2----2----|
E|-0-----0----0----0-----0----0----|-0-----0----0----0-----0----0----|-0-----0----0----0-----0----0----|

E|---------------------------------|---------------------------------|---------------------------------|
B|---------------------------------|-0-----0----0----0-----0----0----|-0-----0----0----0-----0----0----|
G|-11----11---11---11----11---11---|-7-----7----7----7-----7----7----|-2-----2----2----2-----2----2----|
D|-12----12---12---12----12---12---|-7-----7----7----7-----7----7----|-2-----2----2----2-----2----2----|
A|-9-----9----9----9-----9----9----|-5-----5----5----5-----5----5----|-0-----0----0----0-----0----0----|
E|---------------------------------|---------------------------------|---------------------------------|

E|---------------------------------|---------------------------------|-0-----0----0----0-----0----0----|
B|-0-----0----0----0-----0----0----|-0-----0----0----0-----0----0----|---------------------------------|
G|-5-----5----5----5-----5----5----|-7-----7----7----7-----7----7----|-0-----0----0----0-----0----0----|
D|-5-----5----5----5-----5----5----|-7-----7----7----7-----7----7----|-2-----2----2----2-----2----2----|
A|-3-----3----3----3-----3----3----|-5-----5----5----5-----5----5----|-2-----2----2----2-----2----2----|
E|---------------------------------|---------------------------------|-0-----0----0----0-----0----0----|

E|-3-----3----3----0-----0----0----|-0-----0----0----0-----0----0----|---------------------------------|
B|-----------------3-----3----3----|-0-----0----0----0-----0----0----|---------------------------------|
G|-0-----0----0----0-----0----0----|-0-----0----0----0-----0----0----|-11----11---11---11----11---11---|
D|-2-----2----2----2-----2----2----|-2-----2----2----2-----2----2----|-12----12---12---12----12---12---|
A|-2-----2----2----2-----2----2----|-2-----2----2----2-----2----2----|-9-----9----9----9-----9----9----|
E|-0-----0----0----0-----0----0----|-0-----0----0----0-----0----0----|---------------------------------|

E|---------------------------------|---------------------------------|---------------------------------|
B|-0-----0----0----0-----0----0----|-0-----0----0----0-----0----0----|-0-----0----0----0-----0----0----|
G|-7-----7----7----7-----7----7----|-2-----2----2----2-----2----2----|-5-----5----5----5-----5----5----|
D|-7-----7----7----7-----7----7----|-2-----2----2----2-----2----2----|-5-----5----5----5-----5----5----|
A|-5-----5----5----5-----5----5----|-0-----0----0----0-----0----0----|-3-----3----3----3-----3----3----|
E|---------------------------------|---------------------------------|---------------------------------|

E|---------------------------------|-0-----0----0----0-----0----0----|-3-----3----3----0-----0----0----|
B|-0-----0----0----0-----0----0----|---------------------------------|-----------------3-----3----3----|
G|-7-----7----7----7-----7----7----|-0-----0----0----0-----0----0----|-0-----0----0----0-----0----0----|
D|-7-----7----7----7-----7----7----|-2-----2----2----2-----2----2----|-2-----2----2----2-----2----2----|
A|-5-----5----5----5-----5----5----|-2-----2----2----2-----2----2----|-2-----2----2----2-----2----2----|
E|---------------------------------|-0-----0----0----0-----0----0----|-0-----0----0----0-----0----0----|

E|-0-----0----0----0-----0----0----|---------------------------------|---------------------------------|
B|-0-----0----0----0-----0----0----|---------------------------------|-0-----0----0----0-----0----0----|
G|-0-----0----0----0-----0----0----|-11----11---11---11----11---11---|-7-----7----7----7-----7----7----|
D|-2-----2----2----2-----2----2----|-12----12---12---12----12---12---|-7-----7----7----7-----7----7----|
A|-2-----2----2----2-----2----2----|-9-----9----9----9-----9----9----|-5-----5----5----5-----5----5----|
E|-0-----0----0----0-----0----0----|---------------------------------|---------------------------------|

E|---------------------------------|---------------------------------|---------------------------------|
B|-0-----0----0----0-----0----0----|-0-----0----0----0-----0----0----|-0-----0----0----0-----0----0----|
G|-2-----2----2----2-----2----2----|-5-----5----5----5-----5----5----|-7-----7----7----7-----7----7----|
D|-2-----2----2----2-----2----2----|-5-----5----5----5-----5----5----|-7-----7----7----7-----7----7----|
A|-0-----0----0----0-----0----0----|-3-----3----3----3-----3----3----|-5-----5----5----5-----5----5----|
E|---------------------------------|---------------------------------|---------------------------------|

E|-0-----0----0----0-----0----0----|-3-----3----3----0-----0----0----|-0-----0----0----0-----0----0----|
B|---------------------------------|-----------------3-----3----3----|-0-----0----0----0-----0----0----|
G|-0-----0----0----0-----0----0----|-0-----0----0----0-----0----0----|-0-----0----0----0-----0----0----|
D|-2-----2----2----2-----2----2----|-2-----2----2----2-----2----2----|-2-----2----2----2-----2----2----|
A|-2-----2----2----2-----2----2----|-2-----2----2----2-----2----2----|-2-----2----2----2-----2----2----|
E|-0-----0----0----0-----0----0----|-0-----0----0----0-----0----0----|-0-----0----0----0-----0----0----|

E|---------------------------------|---------------------------------|---------------------------------|
B|---------------------------------|-0-----0----0----0-----0----0----|-0-----0----0----0-----0----0----|
G|-11----11---11---11----11---11---|-7-----7----7----7-----7----7----|-2-----2----2----2-----2----2----|
D|-12----12---12---12----12---12---|-7-----7----7----7-----7----7----|-2-----2----2----2-----2----2----|
A|-9-----9----9----9-----9----9----|-5-----5----5----5-----5----5----|-0-----0----0----0-----0----0----|
E|---------------------------------|---------------------------------|---------------------------------|

E|---------|---------|-0-------|-0-------|--------|-----------------------------------------------------------|
B|---------|---------|-0-------|-0-------|--------|-----7---8---7--------------------7---8---7----------------|
G|-5-------|-7-------|-0-------|-0-------|-%------|-9---------------9---7---9----9---------------9---7---9----|
D|-5-------|-7-------|-2-------|-2-------|-%------|-----------------------------------------------------------|
A|-3-------|-5-------|-2-------|-2-------|--------|-----------------------------------------------------------|
E|---------|---------|-0-------|-0-------|--------|-----------------------------------------------------------|

E|--------------------------------------------------------|-----------------------------------------|
B|-----7---8---7------------------------7----7---7---7----|-7---7---8---7-----------------------7---|
G|-9---------------9---7---9----9---9---------------------|-----------------9---7---9---%---9-------|
D|--------------------------------------------------------|-----------------------------%-----------|
A|--------------------------------------------------------|-----------------------------------------|
E|--------------------------------------------------------|-----------------------------------------|

E|---------------------------------7-------------------------------|-----------------------------------------------------------------|
B|-8---7-------7---8-------7---8-------10--8---7---8-------8---8---|-10--8---7-------7-------7---7---8---7-----------------------7---|
G|---------9-----------%-------------------------------%-----------|-------------9-------%-------------------9---7---9---%---9-------|
D|---------------------%-------------------------------%-----------|---------------------%-------------------------------%-----------|
A|-----------------------------------------------------------------|-----------------------------------------------------------------|
E|-----------------------------------------------------------------|-----------------------------------------------------------------|

E|---------------------------------7-------------------------------|-----------------------------------------------------------------|
B|-8---7-------7---8-------7---8-------10--8---7---8-------8---8---|-10--8---7-------7-------7---7---8---7-----------------------7---|
G|---------9-----------%-------------------------------%-----------|-------------9-------%-------------------9---7---9---%---9-------|
D|---------------------%-------------------------------%-----------|---------------------%-------------------------------%-----------|
A|-----------------------------------------------------------------|-----------------------------------------------------------------|
E|-----------------------------------------------------------------|-----------------------------------------------------------------|

E|-----------------------------------------------------------------|-----------------------------------------------------------|
B|-8---7-----------------------7---8---7---------------------------|-7----7---7---7----7---7---8---7-----------------------7---|
G|---------9---7---9---%---9---------------9---7---9---%---9---9---|-----------------------------------9---7---9---%---9-------|
D|---------------------%-------------------------------%-----------|-----------------------------------------------%-----------|
A|-----------------------------------------------------------------|-----------------------------------------------------------|
E|-----------------------------------------------------------------|-----------------------------------------------------------|

E|-----------------------------------------------------------------|-----------------------------------------------------------|
B|-8---7-----------------------7---8---7---------------------------|-7----7---7---7----7---7---8---7-----------------------7---|
G|---------9---7---9---%---9---------------9---7---9---%---9---9---|-----------------------------------9---7---9---%---9-------|
D|---------------------%-------------------------------%-----------|-----------------------------------------------%-----------|
A|-----------------------------------------------------------------|-----------------------------------------------------------|
E|-----------------------------------------------------------------|-----------------------------------------------------------|

E|---------------------------------7-------------------------------|-----------------------------------------------------------------|
B|-8---7-------7---8-------7---8-------10--8---7---8-------8---8---|-10--8---7-------7-------7---7---8---7-----------------------7---|
G|---------9-----------%-------------------------------%-----------|-------------9-------%-------------------9---7---9---%---9-------|
D|---------------------%-------------------------------%-----------|---------------------%-------------------------------%-----------|
A|-----------------------------------------------------------------|-----------------------------------------------------------------|
E|-----------------------------------------------------------------|-----------------------------------------------------------------|

E|---------------------------------7-------------------------------|-------------------------------------------------------|
B|-8---7-------7---8-------7---8-------10--8---7---8-------8---8---|-10--8---7-------7-------7---7---8---7-----------------|
G|---------9-----------%-------------------------------%-----------|-------------9-------%-------------------9---7---9-----|
D|---------------------%-------------------------------%-----------|---------------------%---------------------------------|
A|-----------------------------------------------------------------|-------------------------------------------------------|
E|-----------------------------------------------------------------|-------------------------------------------------------|

E|---------------|---------------|---------------|---------------------------------------------|
B|---------------|---------------|---------------|---------------------------------------------|
G|-9-------11----|-12------12----|-7-------12----|-9-----9-------------------------------------|
D|-9-------12----|-12------12----|-7-------12----|-9-----9-----10--9---7-------9---7-----------|
A|-7-------9-----|-10------10----|-5-------10----|-7-----7-----------------10----------10--9---|
E|---------------|---------------|---------------|---------------------------------------------|

E|---------------|---------------|---------------|--------------------|---------------|
B|---------------|---------------|---------------|--------------------|---------------|
G|-9-------11----|-12------12----|-7-------12----|-9------12----11----|-9-------11----|
D|-9-------12----|-12------12----|-7-------12----|-9------12----11----|-9-------12----|
A|-7-------9-----|-10------10----|-5-------10----|-7------10----9-----|-7-------9-----|
E|---------------|---------------|---------------|--------------------|---------------|

E|---------------|---------------|---------------------------------------------|---------------|
B|---------------|---------------|---------------------------------------------|---------------|
G|-12------12----|-7-------12----|-9-----9-------------------------------------|-9-------11----|
D|-12------12----|-7-------12----|-9-----9-----10--9---7-------9---7-----------|-9-------12----|
A|-10------10----|-5-------10----|-7-----7-----------------10----------10--9---|-7-------9-----|
E|---------------|---------------|---------------------------------------------|---------------|

E|---------------|---------------|--------------------|-----------------------------------------------------------------|
B|---------------|---------------|--------------------|-8---7-----------------------7---8---7---------------------------|
G|-12------12----|-7-------12----|-9------12----11----|---------9---7---9---%---9---------------9---7---9---%---9---9---|
D|-12------12----|-7-------12----|-9------12----11----|---------------------%-------------------------------%-----------|
A|-10------10----|-5-------10----|-7------10----9-----|-----------------------------------------------------------------|
E|---------------|---------------|--------------------|-----------------------------------------------------------------|

E|-----------------------------------------------------------|-----------------------------------------------------------------|
B|-7----7---7---7----7---7---8---7-----------------------7---|-8---7-----------------------7---8---7---------------------------|
G|-----------------------------------9---7---9---%---9-------|---------9---7---9---%---9---------------9---7---9---%---9---9---|
D|-----------------------------------------------%-----------|---------------------%-------------------------------%-----------|
A|-----------------------------------------------------------|-----------------------------------------------------------------|
E|-----------------------------------------------------------|-----------------------------------------------------------------|

E|-----------------------------------------------------------|---------------------------------7-------------------------------|
B|-7----7---7---7----7---7---8---7-----------------------7---|-8---7-------7---8-------7---8-------10--8---7---8-------8---8---|
G|-----------------------------------9---7---9---%---9-------|---------9-----------%-------------------------------%-----------|
D|-----------------------------------------------%-----------|---------------------%-------------------------------%-----------|
A|-----------------------------------------------------------|-----------------------------------------------------------------|
E|-----------------------------------------------------------|-----------------------------------------------------------------|

E|-----------------------------------------------------------------|---------------------------------7-------------------------------|
B|-10--8---7-------7-------7---7---8---7-----------------------7---|-8---7-------7---8-------7---8-------10--8---7---8-------8---8---|
G|-------------9-------%-------------------9---7---9---%---9-------|---------9-----------%-------------------------------%-----------|
D|---------------------%-------------------------------%-----------|---------------------%-------------------------------%-----------|
A|-----------------------------------------------------------------|-----------------------------------------------------------------|
E|-----------------------------------------------------------------|-----------------------------------------------------------------|

E|-----------------------------------------------------------------|-----------------------------------------------------------------|
B|-10--8---7-------7-------7---7---8---7-----------------------7---|-8---7-----------------------7---8---7---------------------------|
G|-------------9-------%-------------------9---7---9---%---9-------|---------9---7---9---%---9---------------9---7---9---%---9---9---|
D|---------------------%-------------------------------%-----------|---------------------%-------------------------------%-----------|
A|-----------------------------------------------------------------|-----------------------------------------------------------------|
E|-----------------------------------------------------------------|-----------------------------------------------------------------|

E|-----------------------------------------------------------|-----------------------------------------------------------------|
B|-7----7---7---7----7---7---8---7-----------------------7---|-8---7-----------------------7---8---7---------------------------|
G|-----------------------------------9---7---9---%---9-------|---------9---7---9---%---9---------------9---7---9---%---9---9---|
D|-----------------------------------------------%-----------|---------------------%-------------------------------%-----------|
A|-----------------------------------------------------------|-----------------------------------------------------------------|
E|-----------------------------------------------------------|-----------------------------------------------------------------|

E|-----------------------------------------------------------|---------------------------------7-------------------------------|
B|-7----7---7---7----7---7---8---7-----------------------7---|-8---7-------7---8-------7---8-------10--8---7---8-------8---8---|
G|-----------------------------------9---7---9---%---9-------|---------9-----------%-------------------------------%-----------|
D|-----------------------------------------------%-----------|---------------------%-------------------------------%-----------|
A|-----------------------------------------------------------|-----------------------------------------------------------------|
E|-----------------------------------------------------------|-----------------------------------------------------------------|

E|-----------------------------------------------------------------|---------------------------------7-------------------------------|
B|-10--8---7-------7-------7---7---8---7-----------------------7---|-8---7-------7---8-------7---8-------10--8---7---8-------8---8---|
G|-------------9-------%-------------------9---7---9---%---9-------|---------9-----------%-------------------------------%-----------|
D|---------------------%-------------------------------%-----------|---------------------%-------------------------------%-----------|
A|-----------------------------------------------------------------|-----------------------------------------------------------------|
E|-----------------------------------------------------------------|-----------------------------------------------------------------|

E|-------------------------------------------------------|---------------|-------------------------------------|
B|-10--8---7-------7-------7---7---8---7-----------------|---------------|-------------------------------------|
G|-------------9-------%-------------------9---7---9-----|---------------|-------------------------------------|
D|---------------------%---------------------------------|-5-------7-----|-9----------12---12---10---9---------|
A|-------------------------------------------------------|-7-------9-----|-10----10-----------------------10---|
E|-------------------------------------------------------|---------------|-------------------------------------|

E|-------------------------------------------------|---------------|-------------12---14---15---14---12--------|
B|-------------------------------------------------|---------------|-15----15-----------------------------15---|
G|-------------------------------------------------|--------%------|-------------------------------------------|
D|-------------------------------------------------|--------%------|-------------------------------------------|
A|-12----12--9---10--9---10--10----10--9-----------|---------------|-------------------------------------------|
E|-----------------------------------------12--10--|-12------------|-------------------------------------------|

E|-12-----------------------12----------------------------------|-------------------------------------|
B|------15---12--------12--------15---12------------------------|-------------------------------------|
G|----------------14-----------------------14---14--14--12--%---|-14----14---14---12---11---11--------|
D|----------------------------------------------------------%---|--------------------------------12---|
A|--------------------------------------------------------------|-------------------------------------|
E|--------------------------------------------------------------|-------------------------------------|

E|---------|-----15-19-15--------------15-19-15-------------15-19-15-------------15--|
B|---------|---------------17------17-----------17------17-----------17------17------|
G|---------|-16----------------16-------------------16-------------------16----------|
D|-14------|-------------------------------------------------------------------------|
A|---------|-------------------------------------------------------------------------|
E|---------|-------------------------------------------------------------------------|

E|-----15--19--15----------15--19--15-------------|-----------------------------------------------|
B|---------------------17-------------------------|-15---15---15----12----------------------------|
G|-16--------------16------------------16--16-----|----------------------15---14---12--------12---|
D|------------------------------------------------|-------------------------------------14--------|
A|------------------------------------------------|-----------------------------------------------|
E|------------------------------------------------|-----------------------------------------------|

E|--------------------------------------|-----15------15------17------17------15------15------12------12--|
B|--------------------------------------|-17------17------19------19------17------17------15------15------|
G|--------------------------------------|-----------------------------------------------------------------|
D|------12------------------------------|-----------------------------------------------------------------|
A|-14--------14---13---12---10----------|-----------------------------------------------------------------|
E|-------------------------------12-----|-----------------------------------------------------------------|

E|-17---15---12---15---12--------12----------------------------|-12---15---12----12---14---15----|
B|--------------------------15--------15---12---15---12--------|---------------------------------|
G|--------------------------------------------------------14---|---------------------------------|
D|-------------------------------------------------------------|---------------------------------|
A|-------------------------------------------------------------|---------------------------------|
E|-------------------------------------------------------------|---------------------------------|

E|-------------------------17------17--19--17--19--20--19--20--22--20--22--22----|-----------------------------|
B|-17--19--20--17--19--20------20------------------------------------------------|-14----14----14---14---14----|
G|-------------------------------------------------------------------------------|-----------------------------|
D|-------------------------------------------------------------------------------|-----------------------------|
A|-------------------------------------------------------------------------------|-----------------------------|
E|-------------------------------------------------------------------------------|-----------------------------|

E|------------------------------------------------|-----------------------------------------------------|
B|-14--------------------------9--10-9---12--12---|-12----9--10-7---9---9-----9--10-9-------9-----------|
G|-------2---4---2----2----2----------------------|-------------------------------------11------11--9---|
D|------------------------------------------------|-----------------------------------------------------|
A|------------------------------------------------|-----------------------------------------------------|
E|------------------------------------------------|-----------------------------------------------------|

E|------------------------------------------|----------------------------------------------------|
B|-------------9---10--12--14---14---14-----|-10--12--10--12-10-12-10-9---10--9------------------|
G|-8---9---11-------------------------------|-------------------------------------9---11--11-----|
D|------------------------------------------|----------------------------------------------------|
A|------------------------------------------|----------------------------------------------------|
E|------------------------------------------|----------------------------------------------------|

E|------------------------------14--17--14------14--|--------------------------------------------------------------------------|
B|-19-------17----19---19---17--------------17------|-14--17--14------14--14--17--14------14--14--17--14------14--17-----------|
G|------18------------------------------------------|-------------16------------------16------------------16------16---16--14--|
D|--------------------------------------------------|--------------------------------------------------------------------------|
A|--------------------------------------------------|--------------------------------------------------------------------------|
E|--------------------------------------------------|--------------------------------------------------------------------------|

E|----------------------------------------------------------------|---------------|
B|-14-17-14-17-14-17-14--12-14-12-14-12-14-12--14---12--14--14----|---------------|
G|----------------------------------------------------------------|-6-------9-----|
D|----------------------------------------------------------------|---------------|
A|----------------------------------------------------------------|---------------|
E|----------------------------------------------------------------|---------------|

E|---------------------------------|-------------------------------------|---------|
B|---------------------------------|-------------------------------------|---------|
G|-7-----6--------------6----7-----|-6-----------------------------------|-6-------|
D|------------9----9---------------|-------9----7----7----9----7----9----|---------|
A|---------------------------------|-------------------------------------|---------|
E|---------------------------------|-------------------------------------|---------|

E|---------------|---------------------------------|-------------------------------------|
B|---------------|---------------------------------|-------------------------------------|
G|-6-------9-----|-7-----6--------------6----7-----|-6-----------------------------------|
D|---------------|------------9----9---------------|-------9----7----7----9----7----6----|
A|---------------|---------------------------------|-------------------------------------|
E|---------------|---------------------------------|-------------------------------------|

E|---------|---------------|---------------------------------|-------------------------------------|
B|---------|---------------|---------------------------------|-------------------------------------|
G|---------|-6-------9-----|-7-----6--------------6----7-----|-6-----------------------------------|
D|-4-------|---------------|------------9----9---------------|-------9----7----7----9----7----9----|
A|---------|---------------|---------------------------------|-------------------------------------|
E|---------|---------------|---------------------------------|-------------------------------------|

E|---------|---------------|---------------------------------|-------------------------------------|
B|---------|---------------|---------------------------------|-------------------------------------|
G|-6-------|-6-------9-----|-7-----6--------------6----7-----|-6-----------------------------------|
D|---------|---------------|------------9----9---------------|-------9----7----7----9----7----6----|
A|---------|---------------|---------------------------------|-------------------------------------|
E|---------|---------------|---------------------------------|-------------------------------------|

E|---------|-----------------------------------|------------------------------------------------------------------------|
B|---------|-15----15----15----15--13--12--13--|-12--13--12-13-12------12-----------------------------------------------|
G|---------|-----------------------------------|-------------------14------15--14--12-----------------------------------|
D|-4-------|-----------------------------------|---------------------------------------14--12---------------------------|
A|---------|-----------------------------------|-----------------------------------------------14--13--12--10-----------|
E|---------|-----------------------------------|---------------------------------------------------------------12--12---|

E|-15----15--15--14--12--------------15--12------12------|-------------------------------------------------|
B|-----------------------15------15----------15------12--|-15--12------12------------------------12---13---|
G|---------------------------14--------------------------|---------14------15--14--12----------------------|
D|-------------------------------------------------------|-----------------------------14--14--------------|
A|-------------------------------------------------------|-------------------------------------------------|
E|-------------------------------------------------------|-------------------------------------------------|

E|--------------------------------------------|-------------------------------------------------------------------------|
B|-12-13-12--------------12-13-12-------------|-12-13-12--------------12-13-12------12-13-12------12------12-13-12------|
G|-----------14------14------------14---------|-----------14------14------------14------------14------14------------14--|
D|---------------14--------------------14-----|---------------14--------------------------------------------------------|
A|--------------------------------------------|-------------------------------------------------------------------------|
E|--------------------------------------------|-------------------------------------------------------------------------|

E|-------------------------------------------------------------------------|----------------------------------------------|
B|-12-13-12--------------12-13-12------13-15-13--12------13-15-13--12------|-13-15-13--12--12-13-12--------12--13--12-----|
G|-----------14------14------------14----------------14----------------14--|------------------------14--------------------|
D|---------------14--------------------------------------------------------|---------------------------14-----------------|
A|-------------------------------------------------------------------------|----------------------------------------------|
E|-------------------------------------------------------------------------|----------------------------------------------|

E|-------------------------------------------------------------------------------------------------|
B|-------------------------------------------------------------------------------------------------|
G|-0---4---0---4---0---4---0---4---0---4---0---4---0---4---0---4---0---4---0---5---0---5---0---5---|
D|-------------------------------------------------------------------------------------------------|
A|-------------------------------------------------------------------------------------------------|
E|-------------------------------------------------------------------------------------------------|

E|-------------------------------------------------------------------------------------------------|
B|-------------------------------------------------------------------------------------------------|
G|-0---7---0---7---0---7---0---7---0---7---0---7---0---7---0---7---0---7---0---7---0---7---0---7---|
D|-------------------------------------------------------------------------------------------------|
A|-------------------------------------------------------------------------------------------------|
E|-------------------------------------------------------------------------------------------------|

E|-------------------------------------------------------------------------------------------------|
B|-------------------------------------------------------------------------------------------------|
G|-0---9---0---9---0---9---0---9---0---9---0---9---0---9---0---9---0---9---0---11--0---11--0---11--|
D|-------------------------------------------------------------------------------------------------|
A|-------------------------------------------------------------------------------------------------|
E|-------------------------------------------------------------------------------------------------|

E|--------------------------------------------------------|------12--15--12------12--15--12--15--12------12--15--12------12--|
B|--------------------------------------------------------|-15---------------15----------------------15--------------15------|
G|-0---12--0---12--0---12--0---12--0---12--0---12--14-----|------------------------------------------------------------------|
D|--------------------------------------------------------|------------------------------------------------------------------|
A|--------------------------------------------------------|------------------------------------------------------------------|
E|--------------------------------------------------------|------------------------------------------------------------------|

E|-15--12--15--12------12--15--12------15--12--15--12------12--15--12------|-------------------------------------------------------|
B|-----------------15--------------15------------------15--------------15--|-15----15--15--12--------------------------------------|
G|-------------------------------------------------------------------------|-------------------15--14--12--------------------------|
D|-------------------------------------------------------------------------|-------------------------------14--12------------------|
A|-------------------------------------------------------------------------|---------------------------------------14--13--12--10--|
E|-------------------------------------------------------------------------|-------------------------------------------------------|

E|---------|---------------|---------------|---------------|---------------------------------------------|
B|---------|---------------|---------------|---------------|---------------------------------------------|
G|---------|-9-------11----|-12------12----|-7-------12----|-9-----9-------------------------------------|
D|---------|-9-------12----|-12------12----|-7-------12----|-9-----9-----10--9---7-------9---7-----------|
A|---------|-7-------9-----|-10------10----|-5-------10----|-7-----7-----------------10----------10--9---|
E|-12------|---------------|---------------|---------------|---------------------------------------------|

E|---------------|---------------|---------------|--------------------|---------------|
B|---------------|---------------|---------------|--------------------|---------------|
G|-9-------11----|-12------12----|-7-------12----|-9------12----11----|-6-------9-----|
D|-9-------12----|-12------12----|-7-------12----|-9------12----11----|---------------|
A|-7-------9-----|-10------10----|-5-------10----|-7------10----9-----|---------------|
E|---------------|---------------|---------------|--------------------|---------------|

E|---------------------------------|-------------------------------------|---------|
B|---------------------------------|-------------------------------------|---------|
G|-7-----6--------------6----7-----|-6-----------------------------------|-6-------|
D|------------9----9---------------|-------9----7----7----9----7----9----|---------|
A|---------------------------------|-------------------------------------|---------|
E|---------------------------------|-------------------------------------|---------|

E|---------------|---------------------------------|-------------------------------------|
B|---------------|---------------------------------|-------------------------------------|
G|-6-------9-----|-7-----6--------------6----7-----|-6-----------------------------------|
D|---------------|------------9----9---------------|-------9----7----7----9----7----6----|
A|---------------|---------------------------------|-------------------------------------|
E|---------------|---------------------------------|-------------------------------------|

E|---------|---------------|---------------------------------|-------------------------------------|
B|---------|---------------|---------------------------------|-------------------------------------|
G|---------|-6-------9-----|-7-----6--------------6----7-----|-6-----------------------------------|
D|-4-------|---------------|------------9----9---------------|-------9----7----7----9----7----9----|
A|---------|---------------|---------------------------------|-------------------------------------|
E|---------|---------------|---------------------------------|-------------------------------------|

E|---------|---------------|---------------------------------|-------------------------------------|
B|---------|---------------|---------------------------------|-------------------------------------|
G|-6-------|-6-------9-----|-7-----6--------------6----7-----|-6-----------------------------------|
D|---------|---------------|------------9----9---------------|-------9----7----7----9----7----6----|
A|---------|---------------|---------------------------------|-------------------------------------|
E|---------|---------------|---------------------------------|-------------------------------------|

E|---------|-----------------------------------------------------------------|-----------------------------------------------------------|
B|---------|-8---7-----------------------7---8---7---------------------------|-7----7---7---7----7---7---8---7-----------------------7---|
G|---------|---------9---7---9---%---9---------------9---7---9---%---9---9---|-----------------------------------9---7---9---%---9-------|
D|-4-------|---------------------%-------------------------------%-----------|-----------------------------------------------%-----------|
A|---------|-----------------------------------------------------------------|-----------------------------------------------------------|
E|---------|-----------------------------------------------------------------|-----------------------------------------------------------|

E|-----------------------------------------------------------------|-----------------------------------------------------------|
B|-8---7-----------------------7---8---7---------------------------|-7----7---7---7----7---7---8---7-----------------------7---|
G|---------9---7---9---%---9---------------9---7---9---%---9---9---|-----------------------------------9---7---9---%---9-------|
D|---------------------%-------------------------------%-----------|-----------------------------------------------%-----------|
A|-----------------------------------------------------------------|-----------------------------------------------------------|
E|-----------------------------------------------------------------|-----------------------------------------------------------|

E|---------------------------------7-------------------------------|-----------------------------------------------------------------|
B|-8---7-------7---8-------7---8-------10--8---7---8-------8---8---|-10--8---7-------7-------7---7---8---7-----------------------7---|
G|---------9-----------%-------------------------------%-----------|-------------9-------%-------------------9---7---9---%---9-------|
D|---------------------%-------------------------------%-----------|---------------------%-------------------------------%-----------|
A|-----------------------------------------------------------------|-----------------------------------------------------------------|
E|-----------------------------------------------------------------|-----------------------------------------------------------------|

E|---------------------------------7-------------------------------|-----------------------------------------------------------------|
B|-8---7-------7---8-------7---8-------10--8---7---8-------8---8---|-10--8---7-------7-------7---7---8---7-----------------------7---|
G|---------9-----------%-------------------------------%-----------|-------------9-------%-------------------9---7---9---%---9-------|
D|---------------------%-------------------------------%-----------|---------------------%-------------------------------%-----------|
A|-----------------------------------------------------------------|-----------------------------------------------------------------|
E|-----------------------------------------------------------------|-----------------------------------------------------------------|

E|-----------------------------------------------------------------|-----------------------------------------------------------|
B|-8---7-----------------------7---8---7---------------------------|-7----7---7---7----7---7---8---7-----------------------7---|
G|---------9---7---9---%---9---------------9---7---9---%---9---9---|-----------------------------------9---7---9---%---9-------|
D|---------------------%-------------------------------%-----------|-----------------------------------------------%-----------|
A|-----------------------------------------------------------------|-----------------------------------------------------------|
E|-----------------------------------------------------------------|-----------------------------------------------------------|

E|-----------------------------------------------------------------|-----------------------------------------------------------|
B|-8---7-----------------------7---8---7---------------------------|-7----7---7---7----7---7---8---7-----------------------7---|
G|---------9---7---9---%---9---------------9---7---9---%---9---9---|-----------------------------------9---7---9---%---9-------|
D|---------------------%-------------------------------%-----------|-----------------------------------------------%-----------|
A|-----------------------------------------------------------------|-----------------------------------------------------------|
E|-----------------------------------------------------------------|-----------------------------------------------------------|

E|---------------------------------7-------------------------------|-----------------------------------------------------------------|
B|-8---7-------7---8-------7---8-------10--8---7---8-------8---8---|-10--8---7-------7-------7---7---8---7-----------------------7---|
G|---------9-----------%-------------------------------%-----------|-------------9-------%-------------------9---7---9---%---9-------|
D|---------------------%-------------------------------%-----------|---------------------%-------------------------------%-----------|
A|-----------------------------------------------------------------|-----------------------------------------------------------------|
E|-----------------------------------------------------------------|-----------------------------------------------------------------|

E|---------------------------------7-------------------------------|-------------------------------------------------------|
B|-8---7-------7---8-------7---8-------10--8---7---8-------8---8---|-10--8---7-------7-------7---7---8---7-----------------|
G|---------9-----------%-------------------------------%-----------|-------------9-------%-------------------9---7---9-----|
D|---------------------%-------------------------------%-----------|---------------------%---------------------------------|
A|-----------------------------------------------------------------|-------------------------------------------------------|
E|-----------------------------------------------------------------|-------------------------------------------------------|

E|-----------------------------------------------------------------|-----------------------------------------------------------|
B|-8---7-----------------------7---8---7---------------------------|-7----7---7---7----7---7---8---7-----------------------7---|
G|---------9---7---9---%---9---------------9---7---9---%---9---9---|-----------------------------------9---7---9---%---9-------|
D|---------------------%-------------------------------%-----------|-----------------------------------------------%-----------|
A|-----------------------------------------------------------------|-----------------------------------------------------------|
E|-----------------------------------------------------------------|-----------------------------------------------------------|

E|-----------------------------------------------------------------|-----------------------------------------------------------|
B|-8---7-----------------------7---8---7---------------------------|-7----7---7---7----7---7---8---7-----------------------7---|
G|---------9---7---9---%---9---------------9---7---9---%---9---9---|-----------------------------------9---7---9---%---9-------|
D|---------------------%-------------------------------%-----------|-----------------------------------------------%-----------|
A|-----------------------------------------------------------------|-----------------------------------------------------------|
E|-----------------------------------------------------------------|-----------------------------------------------------------|

E|---------------------------------7-------------------------------|-----------------------------------------------------------------|
B|-8---7-------7---8-------7---8-------10--8---7---8-------8---8---|-10--8---7-------7-------7---7---8---7-----------------------7---|
G|---------9-----------%-------------------------------%-----------|-------------9-------%-------------------9---7---9---%---9-------|
D|---------------------%-------------------------------%-----------|---------------------%-------------------------------%-----------|
A|-----------------------------------------------------------------|-----------------------------------------------------------------|
E|-----------------------------------------------------------------|-----------------------------------------------------------------|

E|---------------------------------7-------------------------------|-----------------------------------------------------------|
B|-8---7-------7---8-------7---8-------10--8---7---8-------8---8---|-10--8---7-------7-------7---7---8---7---------------------|
G|---------9-----------%-------------------------------%-----------|-------------9-------%-------------------9---7---9----7----|
D|---------------------%-------------------------------%-----------|---------------------%-------------------------------------|
A|-----------------------------------------------------------------|-----------------------------------------------------------|
E|-----------------------------------------------------------------|-----------------------------------------------------------|

E|---------------|---------------|---------|---------|-----------------------|---------|
B|---------8-----|---------------|---------|-7-------|-8-----8----10---8-----|---------|
G|-9-------------|-9-------7-----|-9-------|---------|-----------------------|-9-------|
D|---------------|---------------|---------|---------|-----------------------|---------|
A|---------------|---------------|---------|---------|-----------------------|---------|
E|---------------|---------------|---------|---------|-----------------------|---------|

E|-------7-----7-----|-----------------------|---------|---------|-------7-----7-----|
B|-------------------|-10----10---8----7-----|---------|---------|-------------------|
G|-%-----------------|-----------------------|-9-------|-9-------|-%-----------------|
D|-%-----------------|-----------------------|---------|---------|-%-----------------|
A|-------------------|-----------------------|---------|---------|-------------------|
E|-------------------|-----------------------|---------|---------|-------------------|

E|-10----10---7----------|-----------------------|---------|-------7-----7-----|-----------------------|
B|-----------------10----|-8-----8----10---8-----|---------|-------------------|-10----10---8----7-----|
G|-----------------------|-----------------------|-9-------|-%-----------------|-----------------------|
D|-----------------------|-----------------------|---------|-%-----------------|-----------------------|
A|-----------------------|-----------------------|---------|-------------------|-----------------------|
E|-----------------------|-----------------------|---------|-------------------|-----------------------|

E|---------|---------|-------------------------------|-------------------------------|
B|---------|---------|-------------------------------|-------------------------------|
G|-9-------|-9-------|------9---------9---------%----|------11--------11--------%----|
D|---------|---------|-----------9--------------%----|-----------12-------------%----|
A|---------|---------|-7-------------------7---------|-9-------------------9---------|
E|---------|---------|-------------------------------|-------------------------------|

E|-------------------------------|-------------------------------|-------------------------------|
B|-------------------------------|-------------------------------|-------------------------------|
G|------7---------7---------%----|------5---------5---------%----|------5---------5---------%----|
D|-----------7--------------%----|-----------5--------------%----|-----------5--------------%----|
A|-5-------------------5---------|-3-------------------3---------|-3-------------------3---------|
E|-------------------------------|-------------------------------|-------------------------------|

E|-------------------------------|-------------------------------|-------------------------------|
B|-------------------------------|-------------------------------|-------------------------------|
G|------7---------7---------%----|------9---------9---------%----|------9---------9---------%----|
D|-----------7--------------%----|-----------9--------------%----|-----------9--------------%----|
A|-5-------------------5---------|-7-------------------7---------|-7-------------------7---------|
E|-------------------------------|-------------------------------|-------------------------------|

E|-------------------------------|-------------------------------|-------------------------------|
B|-------------------------------|-------------------------------|-------------------------------|
G|------9---------9---------%----|------11--------11--------%----|------7---------7---------%----|
D|-----------9--------------%----|-----------12-------------%----|-----------7--------------%----|
A|-7-------------------7---------|-9-------------------9---------|-5-------------------5---------|
E|-------------------------------|-------------------------------|-------------------------------|

E|-------------------------------|-------------------------------|-------------------------------|
B|-------------------------------|-------------------------------|-------------------------------|
G|------2---------2---------%----|------5---------5---------%----|------7---------7---------%----|
D|-----------2--------------%----|-----------5--------------%----|-----------7--------------%----|
A|-0-------------------0---------|-3-------------------3---------|-5-------------------5---------|
E|-------------------------------|-------------------------------|-------------------------------|

E|--------------------------0----0-----|-0-------|-0-------|---------|
B|---------------------0---------------|---------|---------|---------|
G|----------------0--------------------|---------|---------|-%-------|
D|-----------2-------------------------|---------|---------|-%-------|
A|------2------------------------------|---------|---------|---------|
E|-0-----------------------------------|---------|---------|---------|
Iron Maiden - Dance of Death (3)
Iron Maiden - Dance of Death (3).gp3