Iron Maiden - Don't Look in to the Eyes Of A Stranger

Iron Maiden



Title: Don't Look in to the Eyes Of A Stranger
Album: Virtual XI
Artist: Iron Maiden
Author: 

Track 1: Guitar 1
E|---------------------------------|-----------------------------|---------------------------------|
B|---------------------------------|-----------------------------|---------------------------------|
G|-%-------------------------------|-----------------------5-----|-%-------------------------------|
D|-%-----7----5----7-----7----5----|-7----5----7-----5-----------|-%-----7----5----7-----7----5----|
A|---------------------------------|-----------------------------|---------------------------------|
E|---------------------------------|-----------------------------|---------------------------------|

E|-----------------------------|---------------------------------|-----------------------------|
B|-----------------------------|---------------------------------|-----------------------------|
G|-----------------------5-----|-%-------------------------------|-----------------------5-----|
D|-7----5----7-----5-----------|-%-----7----5----7-----7----5----|-7----5----7-----5-----------|
A|-----------------------------|---------------------------------|-----------------------------|
E|-----------------------------|---------------------------------|-----------------------------|

E|---------------------------------|-----------------------------|---------|---------|
B|---------------------------------|-----------------------------|---------|---------|
G|-%-------------------------------|-----------------------5-----|---------|---------|
D|-%-----7----5----7-----7----5----|-7----5----7-----5-----------|-7-------|-7-------|
A|---------------------------------|-----------------------------|-7-------|-7-------|
E|---------------------------------|-----------------------------|-5-------|-5-------|

E|---------|---------------|---------|---------|---------|---------------|---------|
B|---------|---------------|---------|---------|---------|---------------|---------|
G|---------|---------------|---------|---------|-7-------|---------------|---------|
D|-7-------|-7------5------|-3-------|-3-------|-7-------|-3------5------|-7-------|
A|-7-------|-7------5------|-3-------|-3-------|-5-------|-3------5------|-7-------|
E|-5-------|-5------3------|-1-------|-1-------|---------|-1------3------|-5-------|

E|---------|---------|---------------|---------|---------|---------|---------------|
B|---------|---------|---------------|---------|---------|---------|---------------|
G|---------|---------|---------------|---------|---------|-7-------|---------------|
D|-7-------|-7-------|-7------5------|-3-------|-3-------|-7-------|-3------5------|
A|-7-------|-7-------|-7------5------|-3-------|-3-------|-5-------|-3------5------|
E|-5-------|-5-------|-5------3------|-1-------|-1-------|---------|-1------3------|

E|-----------------------------------------|----------------------------|-----------------------------------------|
B|-----------------------------------------|----------------------------|-----------------------------------------|
G|--------------------------%--------------|----------------%----%------|--------------------------%--------------|
D|-7----7----7----7----7----%----7----7----|-7----7----7----%----%------|-7----7----7----7----7----%----7----7----|
A|-7----7----7----7----7---------7----7----|-7----7----7----------------|-7----7----7----7----7---------7----7----|
E|-5----5----5----5----5---------5----5----|-5----5----5----------------|-5----5----5----5----5---------5----5----|

E|---------------------------------|---------------------------------|-----------------------------|
B|---------------------------------|---------------------------------|-----------------------------|
G|----------------%----------5-----|-%-------------------------------|-----------------------5-----|
D|-7----7----7----%----5-----5-----|-%-----7----5----7-----7----5----|-7----5----7-----5-----------|
A|-7----7----7---------5-----3-----|---------------------------------|-----------------------------|
E|-5----5----5---------3-----------|---------------------------------|-----------------------------|

E|---------------------------------|-----------------------------|---------------------------------|
B|---------------------------------|-----------------------------|---------------------------------|
G|-%-------------------------------|-----------------------5-----|-%-------------------------------|
D|-%-----7----5----7-----7----5----|-7----5----7-----5-----------|-%-----7----5----7-----7----5----|
A|---------------------------------|-----------------------------|---------------------------------|
E|---------------------------------|-----------------------------|---------------------------------|

E|-----------------------------|---------------------------------|-----------------------------|
B|-----------------------------|---------------------------------|-----------------------------|
G|-----------------------5-----|-%-------------------------------|-----------------------5-----|
D|-7----5----7-----5-----------|-%-----7----5----7-----7----5----|-7----5----7-----5-----------|
A|-----------------------------|---------------------------------|-----------------------------|
E|-----------------------------|---------------------------------|-----------------------------|

E|---------|---------|---------|---------------|---------|---------|---------|---------------|
B|---------|---------|---------|---------------|---------|---------|---------|---------------|
G|---------|---------|---------|---------------|---------|---------|-7-------|---------------|
D|-7-------|-7-------|-7-------|-7------5------|-3-------|-3-------|-7-------|-3------5------|
A|-7-------|-7-------|-7-------|-7------5------|-3-------|-3-------|-5-------|-3------5------|
E|-5-------|-5-------|-5-------|-5------3------|-1-------|-1-------|---------|-1------3------|

E|---------|---------|---------|---------------|---------|---------|---------|---------------|
B|---------|---------|---------|---------------|---------|---------|---------|---------------|
G|---------|---------|---------|---------------|---------|---------|-7-------|---------------|
D|-7-------|-7-------|-7-------|-7------5------|-3-------|-3-------|-7-------|-3------5------|
A|-7-------|-7-------|-7-------|-7------5------|-3-------|-3-------|-5-------|-3------5------|
E|-5-------|-5-------|-5-------|-5------3------|-1-------|-1-------|---------|-1------3------|

E|-------------------------------------|--------------------|---------------------------------|
B|-------------------------------------|--------------------|---------------------------------|
G|--------------------------%----%-----|-%------------5-----|-%-----9----7----9-----9----7----|
D|-7----7----7----7----7----%----%-----|-%------5-----5-----|-%-------------------------------|
A|-7----7----7----7----7---------------|--------5-----3-----|---------------------------------|
E|-5----5----5----5----5---------------|--------3-----------|---------------------------------|

E|-----------------------------|----------------------------|---------|---------------------------------|
B|-----------------------------|----------------------------|---------|---------------------------------|
G|-9-----9----7----9-----10----|-9----7---------------------|---------|-%-----9----7----9-----9----7----|
D|-----------------------------|-----------7----5----7------|-7-------|-%-------------------------------|
A|-----------------------------|----------------------------|---------|---------------------------------|
E|-----------------------------|----------------------------|---------|---------------------------------|

E|-----------------------------|----------------------------|---------|---------------------------------|
B|-----------------------------|----------------------------|---------|---------------------------------|
G|-9-----9----7----9-----10----|-9----7---------------------|---------|-%-----9----7----9-----9----7----|
D|-----------------------------|-----------7----5----7------|-7-------|-%-------------------------------|
A|-----------------------------|----------------------------|---------|---------------------------------|
E|-----------------------------|----------------------------|---------|---------------------------------|

E|-----------------------------|----------------------------|---------|---------------------------------|
B|-----------------------------|----------------------------|---------|---------------------------------|
G|-9-----9----7----9-----10----|-9----7---------------------|---------|-%-----9----7----9-----9----7----|
D|-----------------------------|-----------7----5----7------|-7-------|-%-------------------------------|
A|-----------------------------|----------------------------|---------|---------------------------------|
E|-----------------------------|----------------------------|---------|---------------------------------|

E|-----------------------------|----------------------------|---------|---------------------------------|
B|-----------------------------|----------------------------|---------|---------------------------------|
G|-9-----9----7----9-----10----|-9----7---------------------|---------|-%-------------------------------|
D|-----------------------------|-----------7----5----7------|-7-------|-%-----7----5----7-----7----5----|
A|-----------------------------|----------------------------|---------|---------------------------------|
E|-----------------------------|----------------------------|---------|---------------------------------|

E|-----------------------------|---------------------------------|-----------------------------|
B|-----------------------------|---------------------------------|-----------------------------|
G|-----------------5-----------|-%-------------------------------|-----------------5-----------|
D|-7----5----7-----------7-----|-%-----7----5----7-----7----5----|-7----5----7-----------7-----|
A|-----------------------------|---------------------------------|-----------------------------|
E|-----------------------------|---------------------------------|-----------------------------|

E|---------------------------------|-----------------------------|---------------------------------|
B|---------------------------------|-----------------------------|---------------------------------|
G|-%-------------------------------|-----------------5-----------|-%-------------------------------|
D|-%-----7----5----7-----7----5----|-7----5----7-----------7-----|-%-----7----5----7-----7----5----|
A|---------------------------------|-----------------------------|---------------------------------|
E|---------------------------------|-----------------------------|---------------------------------|

E|-----------------------------|
B|-----------------------------|
G|-----------------5-----------|
D|-7----5----7-----------7-----|
A|-----------------------------|
E|-----------------------------|
Iron Maiden - Don't Look in to the Eyes Of A Stranger
Iron Maiden - Don't Look in to the Eyes Of A Stranger.gp3