Iron Maiden - Don_'t Look To The Eyes Of The Stranger

Iron Maiden - Don_'t Look To The Eyes Of The Stranger

Iron Maiden



Title: Don't Look To The Eyes Of The Stranger
Album: 
Artist: 
Author: IRON MAIDEN

Track 1: Rhytm Guitar
E|-----------------------------------------|-----------------------------------------|
B|-----------------------------------------|-----------------------------------------|
G|-----------13------------------9---------|-----------8-------------------4---------|
D|------13--------13--------9---------9----|------8---------8---------4---------4----|
A|-11------------------7-------------------|-6-------------------2-------------------|
E|-----------------------------------------|-----------------------------------------|

E|-----------------------------------------|-----------------------------------------|
B|-----------------------------------------|-----------------------------------------|
G|-----------13------------------9---------|-----------8-------------------6---------|
D|------13--------13--------9---------9----|------8---------8---------6---------6----|
A|-11------------------7-------------------|-6-------------------4-------------------|
E|-----------------------------------------|-----------------------------------------|

E|-----------------------------------------|-----------------------------------------|
B|-----------------------------------------|-----------------------------------------|
G|-----------13------------------9---------|-----------8-------------------4---------|
D|------13--------13--------9---------9----|------8---------8---------4---------4----|
A|-11------------------7-------------------|-6-------------------2-------------------|
E|-----------------------------------------|-----------------------------------------|

E|-----------------------------------------|-----------------------------------------|
B|-----------------------------------------|-----------------------------------------|
G|-----------13------------------9---------|-----------8-------------------6---------|
D|------13--------13--------9---------9----|------8---------8---------6---------6----|
A|-11------------------7-------------------|-6-------------------4-------------------|
E|-----------------------------------------|-----------------------------------------|

E|-----------------------------------------|-----------------------------------------|
B|-----------------------------------------|-----------------------------------------|
G|-----------13------------------9---------|-----------8-------------------4---------|
D|------13--------13--------9---------9----|------8---------8---------4---------4----|
A|-11------------------7-------------------|-6-------------------2-------------------|
E|-----------------------------------------|-----------------------------------------|

E|-----------------------------------------|-----------------------------------------|
B|-----------------------------------------|-----------------------------------------|
G|-----------13------------------9---------|-----------8-------------------6---------|
D|------13--------13--------9---------9----|------8---------8---------6---------6----|
A|-11------------------7-------------------|-6-------------------4-------------------|
E|-----------------------------------------|-----------------------------------------|

E|-----------------------------------------|-----------------------------------------|
B|-----------------------------------------|-----------------------------------------|
G|-----------13------------------9---------|-----------8-------------------4---------|
D|------13--------13--------9---------9----|------8---------8---------4---------4----|
A|-11------------------7-------------------|-6-------------------2-------------------|
E|-----------------------------------------|-----------------------------------------|

E|-----------------------------------------|-----------------------------------------|
B|-----------------------------------------|-----------------------------------------|
G|-----------13------------------9---------|-----------8-------------------6---------|
D|------13--------13--------9---------9----|------8---------8---------6---------6----|
A|-11------------------7-------------------|-6-------------------4-------------------|
E|-----------------------------------------|-----------------------------------------|

E|-----------------------------------------|-----------------------------------------|
B|-----------------------------------------|-----------------------------------------|
G|-----------13------------------9---------|-----------8-------------------4---------|
D|------13--------13--------9---------9----|------8---------8---------4---------4----|
A|-11------------------7-------------------|-6-------------------2-------------------|
E|-----------------------------------------|-----------------------------------------|

E|-----------------------------------------|-----------------------------------------|
B|-----------------------------------------|-----------------------------------------|
G|-----------13------------------9---------|-----------8-------------------6---------|
D|------13--------13--------9---------9----|------8---------8---------6---------6----|
A|-11------------------7-------------------|-6-------------------4-------------------|
E|-----------------------------------------|-----------------------------------------|

E|-----------------------------------------|-----------------------------------------|
B|-----------------------------------------|-----------------------------------------|
G|-----------13------------------9---------|-----------8-------------------4---------|
D|------13--------13--------9---------9----|------8---------8---------4---------4----|
A|-11------------------7-------------------|-6-------------------2-------------------|
E|-----------------------------------------|-----------------------------------------|

E|-----------------------------------------|-----------------------------------------|
B|-----------------------------------------|-----------------------------------------|
G|-----------13------------------9---------|-----------8-------------------6---------|
D|------13--------13--------9---------9----|------8---------8---------6---------6----|
A|-11------------------7-------------------|-6-------------------4-------------------|
E|-----------------------------------------|-----------------------------------------|

E|-----------------------------------------|-----------------------------------------|
B|-----------------------------------------|-----------------------------------------|
G|-----------13------------------9---------|-----------8-------------------4---------|
D|------13--------13--------9---------9----|------8---------8---------4---------4----|
A|-11------------------7-------------------|-6-------------------2-------------------|
E|-----------------------------------------|-----------------------------------------|

E|-----------------------------------------|---------------------|-----------------------------------------|
B|-----------------------------------------|---------------------|-----------------------------------------|
G|-----------13------------------9---------|-----------8---------|-----------------------------------------|
D|------13--------13--------9---------9----|------8---------8----|-4----4----4----4----4----4----4---------|
A|-11------------------7-------------------|-6-------------------|-4----4----4----4----4----4----4----11---|
E|-----------------------------------------|---------------------|-2----2----2----2----2----2----2---------|

E|-----------------------------------------|-----------------------------|-----------------------------------------|
B|-----------------------------------------|-----------------------------|-----------------------------------------|
G|-----------13-------------13-------------|-11----%----9----9------1----|-1---------13-------------13-------------|
D|------13-------------13-------------13---|-11----%----9----9-----------|------13-------------13-------------13---|
A|-11-------------11-------------11--------|-9----------7----7-----------|----------------11-------------11--------|
E|-----------------------------------------|-----------------------------|-----------------------------------------|

E|-----------------------------|-----------------------------------------|-----------------------------|
B|-----------------------------|-----------------------------------------|-----------------------------|
G|-11----%----9----9-----------|-----------13-------------13-------------|-11----%----9----9-----------|
D|-11----%----9----9-----------|------13-------------13-------------13---|-11----%----9----9-----------|
A|-9----------7----7------11---|-11-------------11-------------11--------|-9----------7----7------11---|
E|-----------------------------|-----------------------------------------|-----------------------------|

E|-----------------------------------------|------------------------|-----------------------------------------|
B|-----------------------------------------|------------------------|-----------------------------------------|
G|-----------13-------------13-------------|-11----%----9----9------|-----------------------------------------|
D|------13-------------13-------------13---|-11----%----9----9------|-6---------6--------------6--------------|
A|-11-------------11-------------11--------|-9----------7----7------|-6---------6--------------6--------------|
E|-----------------------------------------|------------------------|-4----4----4----4----4----4----4----4----|

E|------------------------|-----------------------------------------|------------------------|
B|------------------------|-----------------------------------------|------------------------|
G|-------%----------------|-----------------------------------------|-------%----------------|
D|-4-----%----2----2------|-6---------6--------------6--------------|-4-----%----2----2------|
A|-4----------2----2------|-6---------6--------------6--------------|-4----------2----2------|
E|-2----------0----0------|-4----4----4----4----4----4----4----4----|-2----------0----0------|

E|--------------------|---------|-----------------------------------------|------------------------|
B|--------------------|---------|-----------------------------------------|------------------------|
G|-4-----4-----4------|-6-------|-----------------------------------------|-------%----------------|
D|-4-----4-----4------|-6-------|-6---------6--------------6--------------|-4-----%----2----2------|
A|-2-----2-----2------|-4-------|-6---------6--------------6--------------|-4----------2----2------|
E|--------------------|---------|-4----4----4----4----4----4----4----4----|-2----------0----0------|

E|-----------------------------------------|------------------------|-----------------------------------------|
B|-----------------------------------------|------------------------|-----------------------------------------|
G|-----------------------------------------|-------%----------------|-----------------------------------------|
D|-6---------6--------------6--------------|-4-----%----2----2------|-6---------6--------------6--------------|
A|-6---------6--------------6--------------|-4----------2----2------|-6---------6--------------6--------------|
E|-4----4----4----4----4----4----4----4----|-2----------0----0------|-4----4----4----4----4----4----4----4----|

E|------------------------|--------------------|---------|-----------------------------------------|
B|------------------------|--------------------|---------|-----------------------------------------|
G|-------%----------------|-4-----4-----4------|-6-------|-----------------------------------------|
D|-4-----%----2----2------|-4-----4-----4------|-6-------|-6---------6--------------6--------------|
A|-4----------2----2------|-2-----2-----2------|-4-------|-6---------6--------------6--------------|
E|-2----------0----0------|--------------------|---------|-4----4----4----4----4----4----4----4----|

E|-----------------------------|-----------------------------------------|-----------------------------|
B|-----------------------------|-----------------------------------------|-----------------------------|
G|-------%---------------------|-----------13-------------13-------------|-11----%----9----9-----------|
D|-4-----%----2----2-----------|------13-------------13-------------13---|-11----%----9----9-----------|
A|-4----------2----2------11---|-11-------------11-------------11--------|-9----------7----7------11---|
E|-2----------0----0-----------|-----------------------------------------|-----------------------------|

E|-----------------------------------------|------------------------|------------------------|
B|-----------------------------------------|------------------------|------------------------|
G|-----------13-------------13-------------|-11----%----9----9------|-11----%----9----9------|
D|------13-------------13-------------13---|-11----%----9----9------|-11----%----9----9------|
A|-11-------------11-------------11--------|-9----------7----7------|-9----------7----7------|
E|-----------------------------------------|------------------------|------------------------|

E|-----------------------------------------|-----------------------------------------|
B|-----------------------------------------|-----------------------------------------|
G|-----------13------------------9---------|-----------8-------------------4---------|
D|------13--------13--------9---------9----|------8---------8---------4---------4----|
A|-11------------------7-------------------|-6-------------------2-------------------|
E|-----------------------------------------|-----------------------------------------|

E|-----------------------------------------|-----------------------------------------|
B|-----------------------------------------|-----------------------------------------|
G|-----------13------------------9---------|-----------8-------------------6---------|
D|------13--------13--------9---------9----|------8---------8---------6---------6----|
A|-11------------------7-------------------|-6-------------------4-------------------|
E|-----------------------------------------|-----------------------------------------|

E|-----------------------------------------|-----------------------------------------|
B|-----------------------------------------|-----------------------------------------|
G|-----------13------------------9---------|-----------8-------------------4---------|
D|------13--------13--------9---------9----|------8---------8---------4---------4----|
A|-11------------------7-------------------|-6-------------------2-------------------|
E|-----------------------------------------|-----------------------------------------|

E|-----------------------------------------|-----------------------------------------|
B|-----------------------------------------|-----------------------------------------|
G|-----------13------------------9---------|-----------8-------------------6---------|
D|------13--------13--------9---------9----|------8---------8---------6---------6----|
A|-11------------------7-------------------|-6-------------------4-------------------|
E|-----------------------------------------|-----------------------------------------|

E|-----------------------------------------|-----------------------------------------|
B|-----------------------------------------|-----------------------------------------|
G|-----------13------------------9---------|-----------8-------------------4---------|
D|------13--------13--------9---------9----|------8---------8---------4---------4----|
A|-11------------------7-------------------|-6-------------------2-------------------|
E|-----------------------------------------|-----------------------------------------|

E|-----------------------------------------|-----------------------------------------|
B|-----------------------------------------|-----------------------------------------|
G|-----------13------------------9---------|-----------8-------------------6---------|
D|------13--------13--------9---------9----|------8---------8---------6---------6----|
A|-11------------------7-------------------|-6-------------------4-------------------|
E|-----------------------------------------|-----------------------------------------|

E|-----------------------------------------|-----------------------------------------|
B|-----------------------------------------|-----------------------------------------|
G|-----------13------------------9---------|-----------8-------------------4---------|
D|------13--------13--------9---------9----|------8---------8---------4---------4----|
A|-11------------------7-------------------|-6-------------------2-------------------|
E|-----------------------------------------|-----------------------------------------|

E|-----------------------------------------|-----------------------------------------|
B|-----------------------------------------|-----------------------------------------|
G|-----------13------------------9---------|-----------8-------------------6---------|
D|------13--------13--------9---------9----|------8---------8---------6---------6----|
A|-11------------------7-------------------|-6-------------------4-------------------|
E|-----------------------------------------|-----------------------------------------|

E|-----------------------------------------|-----------------------------------------|
B|-----------------------------------------|-----------------------------------------|
G|-----------13------------------9---------|-----------8-------------------4---------|
D|------13--------13--------9---------9----|------8---------8---------4---------4----|
A|-11------------------7-------------------|-6-------------------2-------------------|
E|-----------------------------------------|-----------------------------------------|

E|-----------------------------------------|-----------------------------------------|
B|-----------------------------------------|-----------------------------------------|
G|-----------13------------------9---------|-----------8-------------------6---------|
D|------13--------13--------9---------9----|------8---------8---------6---------6----|
A|-11------------------7-------------------|-6-------------------4-------------------|
E|-----------------------------------------|-----------------------------------------|

E|---------|---------|---------|---------|---------|---------|---------|---------|---------|
B|---------|---------|---------|---------|---------|---------|---------|---------|---------|
G|---------|-%-------|-%-------|-%-------|-%-------|-%-------|-%-------|-%-------|-%-------|
D|-6-------|-%-------|-%-------|-%-------|-%-------|-%-------|-%-------|-%-------|-%-------|
A|---------|---------|---------|---------|---------|---------|---------|---------|---------|
E|---------|---------|---------|---------|---------|---------|---------|---------|---------|

E|---------|---------|---------|---------|---------|---------|---------|---------|---------|
B|---------|---------|---------|---------|---------|---------|---------|---------|---------|
G|-%-------|-%-------|-%-------|-%-------|-%-------|-%-------|-%-------|-%-------|-%-------|
D|-%-------|-%-------|-%-------|-%-------|-%-------|-%-------|-%-------|-%-------|-%-------|
A|---------|---------|---------|---------|---------|---------|---------|---------|---------|
E|---------|---------|---------|---------|---------|---------|---------|---------|---------|

E|---------|---------|---------|---------|---------|---------|---------|---------|---------|
B|---------|---------|---------|---------|---------|---------|---------|---------|---------|
G|-%-------|-%-------|-%-------|-%-------|-%-------|-%-------|-%-------|-%-------|-%-------|
D|-%-------|-%-------|-%-------|-%-------|-%-------|-%-------|-%-------|-%-------|-%-------|
A|---------|---------|---------|---------|---------|---------|---------|---------|---------|
E|---------|---------|---------|---------|---------|---------|---------|---------|---------|

E|---------|---------|---------|---------|---------|---------|-----------------------------------------|
B|---------|---------|---------|---------|---------|---------|-----------------------------------------|
G|-%-------|-%-------|-%-------|-%-------|-%-------|-%-------|-----------------------------------------|
D|-%-------|-%-------|-%-------|-%-------|-%-------|-%-------|-----------------------------------------|
A|---------|---------|---------|---------|---------|---------|-6----6----6----6----6----6----6----6----|
E|---------|---------|---------|---------|---------|---------|-4----4----4----4----4----4----4----4----|

E|-----------------------------------------|-----------------------------------------|
B|-----------------------------------------|-----------------------------------------|
G|-----------------------------------------|-----------------------------------------|
D|-----------------------------------------|-----------------------------------------|
A|-6----6----6----6----6----6----6----6----|-6----6----6----6----6----6----6----6----|
E|-4----4----4----4----4----4----4----4----|-4----4----4----4----4----4----4----4----|

E|-----------------------------------------|-----------------------------------------|
B|-----------------------------------------|-----------------------------------------|
G|-----------------------------------------|-----------------------------------------|
D|-----------------------------------------|-----------------------------------------|
A|-6----6----6----6----6----6----6----6----|-2----2----2----2----2----2----2----2----|
E|-4----4----4----4----4----4----4----4----|-0----0----0----0----0----0----0----0----|

E|-----------------------------------------|-----------------------------------------|
B|-----------------------------------------|-----------------------------------------|
G|-----------------------------------------|-----------------------------------------|
D|-----------------------------------------|-----------------------------------------|
A|-2----2----2----2----2----2----2----2----|-2----2----2----2----2----2----2----2----|
E|-0----0----0----0----0----0----0----0----|-0----0----0----0----0----0----0----0----|

E|-----------------------------------------|-----------------------------------------|
B|-----------------------------------------|-----------------------------------------|
G|-----------------------------------------|-----------------------------------------|
D|-----------------------------------------|-6----6----6----6----6----6----6----6----|
A|-2----2----2----2----2----2----2----2----|-4----4----4----4----4----4----4----4----|
E|-0----0----0----0----0----0----0----0----|-----------------------------------------|

E|-----------------------------------------|-----------------------------------------|
B|-----------------------------------------|-----------------------------------------|
G|-----------------------------------------|-----------------------------------------|
D|-6----6----6----6----6----6----6----6----|-6----6----6----6----6----6----6----6----|
A|-4----4----4----4----4----4----4----4----|-4----4----4----4----4----4----4----4----|
E|-----------------------------------------|-----------------------------------------|

E|-----------------------------------------|-----------------------------------------|
B|-----------------------------------------|-----------------------------------------|
G|-----------------------------------------|-----------------------------------------|
D|-6----6----6----6----6----6----6----6----|-4----4----4----4----4----4----4----4----|
A|-4----4----4----4----4----4----4----4----|-2----2----2----2----2----2----2----2----|
E|-----------------------------------------|-----------------------------------------|

E|-----------------------------------------|-----------------------------------------|
B|-----------------------------------------|-----------------------------------------|
G|-----------------------------------------|-----------------------------------------|
D|-4----4----4----4----4----4----4----4----|-4----4----4----4----4----4----4----4----|
A|-2----2----2----2----2----2----2----2----|-2----2----2----2----2----2----2----2----|
E|-----------------------------------------|-----------------------------------------|

E|-----------------------------------------|-----------------------------------------|
B|-----------------------------------------|-----------------------------------------|
G|-----------------------------------------|-----------------------------------------|
D|-----------------------------------------|-----------------------------------------|
A|-2----2----2----2----4----4----4----4----|-6----6----6----6----6----6----6----6----|
E|-0----0----0----0----2----2----2----2----|-4----4----4----4----4----4----4----4----|

E|-----------------------------------------|-----------------------------------------|
B|-----------------------------------------|-----------------------------------------|
G|-----------------------------------------|-----------------------------------------|
D|-----------------------------------------|-----------------------------------------|
A|-6----6----6----6----6----6----6----6----|-6----6----6----6----6----6----6----6----|
E|-4----4----4----4----4----4----4----4----|-4----4----4----4----4----4----4----4----|

E|-----------------------------------------|-----------------------------------------|
B|-----------------------------------------|-----------------------------------------|
G|-----------------------------------------|-----------------------------------------|
D|-----------------------------------------|-----------------------------------------|
A|-6----6----6----6----6----6----6----6----|-2----2----2----2----2----2----2----2----|
E|-4----4----4----4----4----4----4----4----|-0----0----0----0----0----0----0----0----|

E|-----------------------------------------|-----------------------------------------|
B|-----------------------------------------|-----------------------------------------|
G|-----------------------------------------|-----------------------------------------|
D|-----------------------------------------|-----------------------------------------|
A|-2----2----2----2----2----2----2----2----|-2----2----2----2----2----2----2----2----|
E|-0----0----0----0----0----0----0----0----|-0----0----0----0----0----0----0----0----|

E|-----------------------------------------|-----------------------------------------|
B|-----------------------------------------|-----------------------------------------|
G|-----------------------------------------|-----------------------------------------|
D|-----------------------------------------|-6----6----6----6----6----6----6----6----|
A|-2----2----2----2----2----2----2----2----|-4----4----4----4----4----4----4----4----|
E|-0----0----0----0----0----0----0----0----|-----------------------------------------|

E|-----------------------------------------|-----------------------------------------|
B|-----------------------------------------|-----------------------------------------|
G|-----------------------------------------|-----------------------------------------|
D|-6----6----6----6----6----6----6----6----|-6----6----6----6----6----6----6----6----|
A|-4----4----4----4----4----4----4----4----|-4----4----4----4----4----4----4----4----|
E|-----------------------------------------|-----------------------------------------|

E|-----------------------------------------|-----------------------------------------|
B|-----------------------------------------|-----------------------------------------|
G|-----------------------------------------|-----------------------------------------|
D|-6----6----6----6----6----6----6----6----|-4----4----4----4----4----4----4----4----|
A|-4----4----4----4----4----4----4----4----|-2----2----2----2----2----2----2----2----|
E|-----------------------------------------|-----------------------------------------|

E|-----------------------------------------|-----------------------------------------|
B|-----------------------------------------|-----------------------------------------|
G|-----------------------------------------|-----------------------------------------|
D|-4----4----4----4----4----4----4----4----|-4----4----4----4----4----4----4----4----|
A|-2----2----2----2----2----2----2----2----|-2----2----2----2----2----2----2----2----|
E|-----------------------------------------|-----------------------------------------|

E|-----------------------------------------|-----------------------------------------|
B|-----------------------------------------|-----------------------------------------|
G|-----------------------------------------|-----------------------------------------|
D|-----------------------------------------|-----------------------------------------|
A|-2----2----2----2----4----4----4----4----|-6----6----6----6----6----6----6----6----|
E|-0----0----0----0----2----2----2----2----|-4----4----4----4----4----4----4----4----|

E|-----------------------------------------|-----------------------------------------|
B|-----------------------------------------|-----------------------------------------|
G|-----------------------------------------|-----------------------------------------|
D|-----------------------------------------|-----------------------------------------|
A|-6----6----6----6----6----6----6----6----|-6----6----6----6----6----6----6----6----|
E|-4----4----4----4----4----4----4----4----|-4----4----4----4----4----4----4----4----|

E|-----------------------------------------|-----------------------------------------|
B|-----------------------------------------|-----------------------------------------|
G|-----------------------------------------|-----------------------------------------|
D|-----------------------------------------|-----------------------------------------|
A|-6----6----6----6----6----6----6----6----|-2----2----2----2----2----2----2----2----|
E|-4----4----4----4----4----4----4----4----|-0----0----0----0----0----0----0----0----|

E|-----------------------------------------|-----------------------------------------|
B|-----------------------------------------|-----------------------------------------|
G|-----------------------------------------|-----------------------------------------|
D|-----------------------------------------|-----------------------------------------|
A|-2----2----2----2----2----2----2----2----|-2----2----2----2----2----2----2----2----|
E|-0----0----0----0----0----0----0----0----|-0----0----0----0----0----0----0----0----|

E|-----------------------------------------|-----------------------------------------|
B|-----------------------------------------|-----------------------------------------|
G|-----------------------------------------|-----------------------------------------|
D|-----------------------------------------|-6----6----6----6----6----6----6----6----|
A|-2----2----2----2----2----2----2----2----|-4----4----4----4----4----4----4----4----|
E|-0----0----0----0----0----0----0----0----|-----------------------------------------|

E|-----------------------------------------|-----------------------------------------|
B|-----------------------------------------|-----------------------------------------|
G|-----------------------------------------|-----------------------------------------|
D|-6----6----6----6----6----6----6----6----|-6----6----6----6----6----6----6----6----|
A|-4----4----4----4----4----4----4----4----|-4----4----4----4----4----4----4----4----|
E|-----------------------------------------|-----------------------------------------|

E|-----------------------------------------|-----------------------------------------|
B|-----------------------------------------|-----------------------------------------|
G|-----------------------------------------|-----------------------------------------|
D|-6----6----6----6----6----6----6----6----|-4----4----4----4----4----4----4----4----|
A|-4----4----4----4----4----4----4----4----|-2----2----2----2----2----2----2----2----|
E|-----------------------------------------|-----------------------------------------|

E|-----------------------------------------|-----------------------------------------|
B|-----------------------------------------|-----------------------------------------|
G|-----------------------------------------|-----------------------------------------|
D|-4----4----4----4----4----4----4----4----|-4----4----4----4----4----4----4----4----|
A|-2----2----2----2----2----2----2----2----|-2----2----2----2----2----2----2----2----|
E|-----------------------------------------|-----------------------------------------|

E|-----------------------------------------|-----------------------------|-----------------------------|
B|-----------------------------------------|-----------------------------|-----------------------------|
G|-----------------------------------------|-%---------------------------|-----------------------4-----|
D|-----------------------------------------|-%-----6----4----6------4----|-6----4----6-----4-----------|
A|-2----2----2----2----4----4----4----4----|-----------------------------|-----------------------------|
E|-0----0----0----0----2----2----2----2----|-----------------------------|-----------------------------|

E|-----------------------------|-----------------------------|-----------------------------|
B|-----------------------------|-----------------------------|-----------------------------|
G|-%---------------------------|-----------------------4-----|-%---------------------------|
D|-%-----6----4----6------4----|-6----4----6-----4-----------|-%-----6----4----6------4----|
A|-----------------------------|-----------------------------|-----------------------------|
E|-----------------------------|-----------------------------|-----------------------------|

E|-----------------------------|-----------------------------|-----------------------------|
B|-----------------------------|-----------------------------|-----------------------------|
G|-----------------------4-----|-%---------------------------|-----------------------4-----|
D|-6----4----6-----4-----------|-%-----6----4----6------4----|-6----4----6-----4-----------|
A|-----------------------------|-----------------------------|-----------------------------|
E|-----------------------------|-----------------------------|-----------------------------|

E|-----------------------------|-----------------------------|---------------------------------|
B|-----------------------------|-----------------------------|---------------------------------|
G|-%---------------------------|-----------------------4-----|-%-----8----6----8-----8----6----|
D|-%-----6----4----6------4----|-6----4----6-----4-----------|-%-------------------------------|
A|-----------------------------|-----------------------------|---------------------------------|
E|-----------------------------|-----------------------------|---------------------------------|

E|-----------------------------|----------------------------|---------------|---------------------------------|
B|-----------------------------|----------------------------|---------------|---------------------------------|
G|-8-----8----6----8-----9-----|-8----6---------------------|--------%------|-%-----8----6----8-----8----6----|
D|-----------------------------|-----------6----4----6------|-6------%------|-%-------------------------------|
A|-----------------------------|----------------------------|---------------|---------------------------------|
E|-----------------------------|----------------------------|---------------|---------------------------------|

E|-----------------------------|----------------------------|---------------|-----------------------------------------|
B|-----------------------------|----------------------------|---------------|-----------------------------------------|
G|-8-----8----6----8-----9-----|-8----6---------------------|--------%------|--------------------------%--------------|
D|-----------------------------|-----------6----4----6------|-6------%------|--------------------------%--------------|
A|-----------------------------|----------------------------|---------------|-6----6----6----6----6---------6----6----|
E|-----------------------------|----------------------------|---------------|-4----4----4----4----4---------4----4----|

E|----------------------------|-----------------------------------------|---------------------------------|
B|----------------------------|-----------------------------------------|---------------------------------|
G|----------------%----%------|--------------------------%--------------|----------------%----------------|
D|----------------%----%------|--------------------------%--------------|----------------%----------4-----|
A|-6----6----6----------------|-6----6----6----6----6---------6----6----|-6----6----6---------4-----2-----|
E|-4----4----4----------------|-4----4----4----4----4---------4----4----|-4----4----4---------2-----------|

E|-----------------------------|-----------------------------|-----------------------------|
B|-----------------------------|-----------------------------|-----------------------------|
G|-%---------------------------|-----------------------4-----|-%---------------------------|
D|-%-----6----4----6------4----|-6----4----6-----4-----------|-%-----6----4----6------4----|
A|-----------------------------|-----------------------------|-----------------------------|
E|-----------------------------|-----------------------------|-----------------------------|

E|-----------------------------|-----------------------------|-----------------------------|
B|-----------------------------|-----------------------------|-----------------------------|
G|-----------------------4-----|-%---------------------------|-----------------------4-----|
D|-6----4----6-----4-----------|-%-----6----4----6------4----|-6----4----6-----4-----------|
A|-----------------------------|-----------------------------|-----------------------------|
E|-----------------------------|-----------------------------|-----------------------------|

E|-----------------------------|-----------------------------|---------|---------|---------|
B|-----------------------------|-----------------------------|---------|---------|---------|
G|-%---------------------------|-----------------------4-----|---------|---------|---------|
D|-%-----6----4----6------4----|-6----4----6-----4-----------|-6-------|-6-------|-6-------|
A|-----------------------------|-----------------------------|-6-------|-6-------|-6-------|
E|-----------------------------|-----------------------------|-4-------|-4-------|-4-------|

E|---------------|---------|---------|---------|---------------|---------|---------|
B|---------------|---------|---------|---------|---------------|---------|---------|
G|---------------|---------|---------|-6-------|---------------|---------|---------|
D|-6------4------|-2-------|-2-------|-6-------|-2------4------|-6-------|-6-------|
A|-6------4------|-2-------|-2-------|-4-------|-2------4------|-6-------|-6-------|
E|-4------2------|-0-------|-0-------|---------|-0------2------|-4-------|-4-------|

E|---------|---------------|---------|---------|---------|---------------|-----------------------------------------|
B|---------|---------------|---------|---------|---------|---------------|-----------------------------------------|
G|---------|---------------|---------|---------|-6-------|---------------|--------------------------%--------------|
D|-6-------|-6------4------|-2-------|-2-------|-6-------|-2------4------|--------------------------%--------------|
A|-6-------|-6------4------|-2-------|-2-------|-4-------|-2------4------|-6----6----6----6----6---------6----6----|
E|-4-------|-4------2------|-0-------|-0-------|---------|-0------2------|-4----4----4----4----4---------4----4----|

E|----------------------------|-----------------------------------------|---------------------------------|
B|----------------------------|-----------------------------------------|---------------------------------|
G|----------------%----%------|--------------------------%--------------|----------------%----------------|
D|----------------%----%------|--------------------------%--------------|----------------%----------4-----|
A|-6----6----6----------------|-6----6----6----6----6---------6----6----|-6----6----6---------4-----2-----|
E|-4----4----4----------------|-4----4----4----4----4---------4----4----|-4----4----4---------2-----------|

E|-----------------------------|-----------------------------|-----------------------------|
B|-----------------------------|-----------------------------|-----------------------------|
G|-%---------------------------|-----------------------4-----|-%---------------------------|
D|-%-----6----4----6------4----|-6----4----6-----4-----------|-%-----6----4----6------4----|
A|-----------------------------|-----------------------------|-----------------------------|
E|-----------------------------|-----------------------------|-----------------------------|

E|-----------------------------|-----------------------------|-----------------------------|
B|-----------------------------|-----------------------------|-----------------------------|
G|-----------------------4-----|-%---------------------------|-----------------------4-----|
D|-6----4----6-----4-----------|-%-----6----4----6------4----|-6----4----6-----4-----------|
A|-----------------------------|-----------------------------|-----------------------------|
E|-----------------------------|-----------------------------|-----------------------------|

E|-----------------------------|-----------------------------|---------|---------|---------|
B|-----------------------------|-----------------------------|---------|---------|---------|
G|-%---------------------------|-----------------------4-----|---------|---------|---------|
D|-%-----6----4----6------4----|-6----4----6-----4-----------|-6-------|-6-------|-6-------|
A|-----------------------------|-----------------------------|-6-------|-6-------|-6-------|
E|-----------------------------|-----------------------------|-4-------|-4-------|-4-------|

E|---------------|---------|---------|---------|---------------|---------|---------|
B|---------------|---------|---------|---------|---------------|---------|---------|
G|---------------|---------|---------|-6-------|---------------|---------|---------|
D|-6------4------|-2-------|-2-------|-6-------|-2------4------|-6-------|-6-------|
A|-6------4------|-2-------|-2-------|-4-------|-2------4------|-6-------|-6-------|
E|-4------2------|-0-------|-0-------|---------|-0------2------|-4-------|-4-------|

E|---------|---------------|---------|---------|---------|---------------|-------------------------------------|
B|---------|---------------|---------|---------|---------|---------------|-------------------------------------|
G|---------|---------------|---------|---------|-6-------|---------------|--------------------------%----%-----|
D|-6-------|-6------4------|-2-------|-2-------|-6-------|-2------4------|--------------------------%----%-----|
A|-6-------|-6------4------|-2-------|-2-------|-4-------|-2------4------|-6----6----6----6----6---------------|
E|-4-------|-4------2------|-0-------|-0-------|---------|-0------2------|-4----4----4----4----4---------------|

E|--------------------|---------------------------------|-----------------------------|
B|--------------------|---------------------------------|-----------------------------|
G|-%------------------|-%-----8----6----8-----8----6----|-8-----8----6----8-----9-----|
D|-%------------4-----|-%-------------------------------|-----------------------------|
A|--------4-----2-----|---------------------------------|-----------------------------|
E|--------2-----------|---------------------------------|-----------------------------|

E|----------------------------|---------------|---------------------------------|-----------------------------|
B|----------------------------|---------------|---------------------------------|-----------------------------|
G|-8----6---------------------|--------%------|-%-----8----6----8-----8----6----|-8-----8----6----8-----9-----|
D|-----------6----4----6------|-6------%------|-%-------------------------------|-----------------------------|
A|----------------------------|---------------|---------------------------------|-----------------------------|
E|----------------------------|---------------|---------------------------------|-----------------------------|

E|----------------------------|---------------|-----------------------------|-----------------------------|
B|----------------------------|---------------|-----------------------------|-----------------------------|
G|-8----6---------------------|--------%------|-%---------------------------|-----------------4-----------|
D|-----------6----4----6------|-6------%------|-%-----6----4----6------4----|-6----4----6-----------6-----|
A|----------------------------|---------------|-----------------------------|-----------------------------|
E|----------------------------|---------------|-----------------------------|-----------------------------|

E|-----------------------------|-----------------------------|-----------------------------|
B|-----------------------------|-----------------------------|-----------------------------|
G|-%---------------------------|-----------------4-----------|-%---------------------------|
D|-%-----6----4----6------4----|-6----4----6-----------6-----|-%-----6----4----6------4----|
A|-----------------------------|-----------------------------|-----------------------------|
E|-----------------------------|-----------------------------|-----------------------------|

E|-----------------------------|-----------------------------|-----------------------------|
B|-----------------------------|-----------------------------|-----------------------------|
G|-----------------4-----------|-%---------------------------|-----------------4-----------|
D|-6----4----6-----------6-----|-%-----6----4----6------4----|-6----4----6-----------6-----|
A|-----------------------------|-----------------------------|-----------------------------|
E|-----------------------------|-----------------------------|-----------------------------|

E|-----------------------------|-----------------------------|-----------------------------|
B|-----------------------------|-----------------------------|-----------------------------|
G|-%---------------------------|-----------------4-----------|-%---------------------------|
D|-%-----6----4----6------4----|-6----4----6-----------6-----|-%-----6----4----6------4----|
A|-----------------------------|-----------------------------|-----------------------------|
E|-----------------------------|-----------------------------|-----------------------------|

E|-----------------------------|-----------------------------------------|-----------------------------------------|
B|-----------------------------|-----------------------------------------|-----------------------------------------|
G|-----------------4-----------|-----------13------------------9---------|-----------8-------------------4---------|
D|-6----4----6-----------6-----|------13--------13--------9---------9----|------8---------8---------4---------4----|
A|-----------------------------|-11------------------7-------------------|-6-------------------2-------------------|
E|-----------------------------|-----------------------------------------|-----------------------------------------|

E|-----------------------------------------|-----------------------------------------|
B|-----------------------------------------|-----------------------------------------|
G|-----------13------------------9---------|-----------8-------------------6---------|
D|------13--------13--------9---------9----|------8---------8---------6---------6----|
A|-11------------------7-------------------|-6-------------------4-------------------|
E|-----------------------------------------|-----------------------------------------|

E|-----------------------------------------|-----------------------------------------|
B|-----------------------------------------|-----------------------------------------|
G|-----------13------------------9---------|-----------8-------------------4---------|
D|------13--------13--------9---------9----|------8---------8---------4---------4----|
A|-11------------------7-------------------|-6-------------------2-------------------|
E|-----------------------------------------|-----------------------------------------|

E|-----------------------------------------|-----------------------------------------|
B|-----------------------------------------|-----------------------------------------|
G|-----------13------------------9---------|-----------8-------------------6---------|
D|------13--------13--------9---------9----|------8---------8---------6---------6----|
A|-11------------------7-------------------|-6-------------------4-------------------|
E|-----------------------------------------|-----------------------------------------|

E|-----------------------------------------|-----------------------------------------|
B|-----------------------------------------|-----------------------------------------|
G|-----------13------------------9---------|-----------8-------------------4---------|
D|------13--------13--------9---------9----|------8---------8---------4---------4----|
A|-11------------------7-------------------|-6-------------------2-------------------|
E|-----------------------------------------|-----------------------------------------|

E|-----------------------------------------|-----------------------------------------|
B|-----------------------------------------|-----------------------------------------|
G|-----------13------------------9---------|-----------8-------------------6---------|
D|------13--------13--------9---------9----|------8---------8---------6---------6----|
A|-11------------------7-------------------|-6-------------------4-------------------|
E|-----------------------------------------|-----------------------------------------|

E|---------|---------|-----------------------------------------|---------------------------------|
B|---------|---------|-----------------------------------------|---------------------------------|
G|---------|---------|--------------------------%--------------|----------------%----------------|
D|-4-------|-4-------|--------------------------%--------------|----------------%----------4-----|
A|-4-------|-4-------|-6----6----6----6----6---------6----6----|-6----6----6---------4-----2-----|
E|-2-------|-2-------|-4----4----4----4----4---------4----4----|-4----4----4---------2-----------|
Iron Maiden - Don_'t Look To The Eyes Of The Stranger
Iron Maiden - Don_'t Look To The Eyes Of The Stranger.gp3