Iron Maiden - Dream Of Mirrors

Iron Maiden - Dream Of Mirrors

Iron Maiden



Title: Dream Of Mirrors
Album: Brave new world
Artist: Iron Maiden
Author: Janick Gers / Steve Harris

Track 1: Guitar 1
E|----------------------------------------|----------------------------------------|
B|----------------------------------------|----------------------------------------|
G|-----------%----4---5---4---------------|-----------%----4---5---4---------7-----|
D|-7----7----%-----------------5----------|-7----7----%-----------------5----------|
A|-7----7---------------------------5-----|-7----7---------------------------------|
E|-5----5---------------------------------|-5----5---------------------------------|

E|----------------------------------------|-----------------------------------------|
B|----------------------------------------|-----------------------------------------|
G|-----------%----4---5---4---------------|-------------------------------5----4----|
D|-7----7----%-----------------5----------|---------------------3----2--------------|
A|-7----7---------------------------5-----|-3----2----3----2------------------------|
E|-5----5---------------------------------|-----------------------------------------|

E|----------------------------------------|----------------------------------------|
B|----------------------------------------|----------------------------------------|
G|-----------%----4---5---4---------------|-----------%----4---5---4---------7-----|
D|-7----7----%-----------------5----------|-7----7----%-----------------5----------|
A|-7----7---------------------------5-----|-7----7---------------------------------|
E|-5----5---------------------------------|-5----5---------------------------------|

E|----------------------------------------|-----------------------------------------|
B|----------------------------------------|-----------------------------------------|
G|-----------%----4---5---4---------------|-------------------------------5----4----|
D|-7----7----%-----------------5----------|---------------------3----2--------------|
A|-7----7---------------------------5-----|-3----2----3----2------------------------|
E|-5----5---------------------------------|-----------------------------------------|

E|-------------------------------------|---------|-------------------------------------|
B|--------------5------5---6---5-------|-5-------|--------------5------5---6---5-------|
G|---------------------------------7---|---------|---------------------------------7---|
D|-7----7---7--------------------------|---------|-7----7---7--------------------------|
A|-------------------------------------|---------|-------------------------------------|
E|-------------------------------------|---------|-------------------------------------|

E|-------------------|-------------------------------------|---------|-------------------------------------|
B|-5----6----8-------|--------------3------3---4---3-------|-3-------|--------------5------5---6---5-------|
G|-------------------|---------------------------------5---|---------|---------------------------------7---|
D|-------------------|-5----5---5--------------------------|---------|-7----7---7--------------------------|
A|-------------------|-------------------------------------|---------|-------------------------------------|
E|-------------------|-------------------------------------|---------|-------------------------------------|

E|-------------------|--------------------|---------|---------|---------|---------|
B|-5----6----8-------|--------------------|---------|---------|---------|---------|
G|-------------------|-%-----%------%-----|-%-------|-%-------|-%-------|-%-------|
D|-------------------|-%-----%------%-----|-%-------|-%-------|-%-------|-%-------|
A|-------------------|--------------------|---------|---------|---------|---------|
E|-------------------|--------------------|---------|---------|---------|---------|

E|---------|---------|---------|-0-------|---------|-0-------|---------|---------|---------|
B|---------|---------|---------|-0-------|---------|-0-------|---------|---------|---------|
G|-%-------|-%-------|-%-------|-5-------|-%-------|-5-------|-%-------|-%-------|-%-------|
D|-%-------|-%-------|-%-------|-5-------|-%-------|-5-------|-%-------|-%-------|-%-------|
A|---------|---------|---------|-0-------|---------|-0-------|---------|---------|---------|
E|---------|---------|---------|---------|---------|---------|---------|---------|---------|

E|---------|---------|-----------------------------------------|-----------------------------------------|
B|---------|---------|-----------------------------------------|-----------------------------------------|
G|-%-------|-%-------|-----------------------------------------|-----------7-------------------7---------|
D|-%-------|-%-------|-----------3-------------------3---------|------7---------7---------7---------7----|
A|---------|---------|------3---------3---------3---------3----|-5-------------------5-------------------|
E|---------|---------|-1-------------------1-------------------|-----------------------------------------|

E|-----------------------------------------|-----------------------------------------|
B|-----------------------------------------|-----------------------------------------|
G|-----------------------------------------|-----------7-------------------7---------|
D|-----------3-------------------3---------|------7---------7---------7---------7----|
A|------3---------3---------3---------3----|-5-------------------5-------------------|
E|-1-------------------1-------------------|-----------------------------------------|

E|-----------------------------------------|-----------------------------------------|
B|-----------------------------------------|-----------------------------------------|
G|-----------------------------------------|-----------7-------------------7---------|
D|-----------3-------------------3---------|------7---------7---------7---------7----|
A|------3---------3---------3---------3----|-5-------------------5-------------------|
E|-1-------------------1-------------------|-----------------------------------------|

E|-----------------------------------------|-----------------------------------------|
B|-----------------------------------------|-----------------------------------------|
G|-----------------------------------------|-----------------------------------------|
D|-----------3-------------------3---------|-----------5---------5---------5---------|
A|------3---------3---------3---------3----|------5---------5---------5---------5----|
E|-1-------------------1-------------------|-3---------------------------------------|

E|---------|---------|---------|---------|---------|---------|---------|---------|-0-------|
B|---------|---------|---------|---------|---------|---------|---------|---------|-0-------|
G|-%-------|-%-------|-%-------|-%-------|-%-------|-%-------|-%-------|-%-------|-5-------|
D|-%-------|-%-------|-%-------|-%-------|-%-------|-%-------|-%-------|-%-------|-5-------|
A|---------|---------|---------|---------|---------|---------|---------|---------|-0-------|
E|---------|---------|---------|---------|---------|---------|---------|---------|---------|

E|---------|---------|---------|---------|---------|---------|---------|-0-------|---------|
B|---------|---------|---------|---------|---------|---------|---------|-0-------|---------|
G|-%-------|-%-------|-%-------|-%-------|-%-------|-%-------|-%-------|-5-------|-%-------|
D|-%-------|-%-------|-%-------|-%-------|-%-------|-%-------|-%-------|-5-------|-%-------|
A|---------|---------|---------|---------|---------|---------|---------|-0-------|---------|
E|---------|---------|---------|---------|---------|---------|---------|---------|---------|

E|-------------------0----|-0-------|---------|---------|---------|---------|---------|
B|-------------------0----|-0-------|---------|---------|---------|---------|---------|
G|-%------%-----%----5----|-5-------|-%-------|-%-------|-%-------|-%-------|-%-------|
D|-%------%-----%----5----|-5-------|-%-------|-%-------|-%-------|-%-------|-%-------|
A|-------------------0----|-0-------|---------|---------|---------|---------|---------|
E|------------------------|---------|---------|---------|---------|---------|---------|

E|---------|---------|---------|---------|---------|---------|---------|---------|---------|
B|---------|---------|---------|---------|---------|---------|---------|---------|---------|
G|-%-------|-%-------|-%-------|---------|-7-------|---------|-7-------|---------|-7-------|
D|-%-------|-%-------|-%-------|-3-------|-7-------|-3-------|-7-------|-3-------|-7-------|
A|---------|---------|---------|-3-------|-5-------|-3-------|-5-------|-3-------|-5-------|
E|---------|---------|---------|-1-------|---------|-1-------|---------|-1-------|---------|

E|---------|---------|-------------------------------------|---------------------------------|
B|---------|---------|-------------------------------------|---------------------------------|
G|---------|---------|-------------------------------------|---------------------------------|
D|-3-------|-5-------|-7----7----7----7----7----7----7-----|-3------5----5----5----5----5----|
A|-3-------|-5-------|-7----7----7----7----7----7----7-----|-3------5----5----5----5----5----|
E|-1-------|-3-------|-5----5----5----5----5----5----5-----|-1------3----3----3----3----3----|

E|-------------------------------------|---------------------------------|-------------------------------------|
B|-------------------------------------|---------------------------------|-------------------------------------|
G|-------------------------------------|---------------------------------|-------------------------------------|
D|-7----7----7----7----7----7----7-----|-3------5----5----5----5----5----|-7----7----7----7----7----7----7-----|
A|-7----7----7----7----7----7----7-----|-3------5----5----5----5----5----|-7----7----7----7----7----7----7-----|
E|-5----5----5----5----5----5----5-----|-1------3----3----3----3----3----|-5----5----5----5----5----5----5-----|

E|---------------------------------|-----------------------------------------|-----------------------------------------|
B|---------------------------------|-----------------------------------------|-----------------------------------------|
G|---------------------------------|-----------------------------------------|-----------------------------------------|
D|-3------5----5----5----5----5----|-3----3----3----3----3----3----3----3----|-5----5----5----5----5----5----5----5----|
A|-3------5----5----5----5----5----|-3----3----3----3----3----3----3----3----|-5----5----5----5----5----5----5----5----|
E|-1------3----3----3----3----3----|-1----1----1----1----1----1----1----1----|-3----3----3----3----3----3----3----3----|

E|-------------------------------------|---------------------------------|-------------------------------------|
B|-------------------------------------|---------------------------------|-------------------------------------|
G|-------------------------------------|---------------------------------|-------------------------------------|
D|-7----7----7----7----7----7----7-----|-3------5----5----5----5----5----|-7----7----7----7----7----7----7-----|
A|-7----7----7----7----7----7----7-----|-3------5----5----5----5----5----|-7----7----7----7----7----7----7-----|
E|-5----5----5----5----5----5----5-----|-1------3----3----3----3----3----|-5----5----5----5----5----5----5-----|

E|---------------------------------|-------------------------------------|---------------------------------|
B|---------------------------------|-------------------------------------|---------------------------------|
G|---------------------------------|-------------------------------------|---------------------------------|
D|-3------5----5----5----5----5----|-7----7----7----7----7----7----7-----|-3------5----5----5----5----5----|
A|-3------5----5----5----5----5----|-7----7----7----7----7----7----7-----|-3------5----5----5----5----5----|
E|-1------3----3----3----3----3----|-5----5----5----5----5----5----5-----|-1------3----3----3----3----3----|

E|-----------------------------------------|-----------------------------------------|
B|-----------------------------------------|-----------------------------------------|
G|-----------------------------------------|-----------------------------------------|
D|-3----3----3----3----3----3----3----3----|-5----5----5----5----5----5----5----5----|
A|-3----3----3----3----3----3----3----3----|-5----5----5----5----5----5----5----5----|
E|-1----1----1----1----1----1----1----1----|-3----3----3----3----3----3----3----3----|

E|---------|---------|---------|---------|---------|---------|---------|---------|---------|
B|---------|---------|---------|---------|---------|---------|---------|---------|---------|
G|-%-------|-%-------|-%-------|-%-------|-%-------|-%-------|-%-------|-%-------|-%-------|
D|-%-------|-%-------|-%-------|-%-------|-%-------|-%-------|-%-------|-%-------|-%-------|
A|---------|---------|---------|---------|---------|---------|---------|---------|---------|
E|---------|---------|---------|---------|---------|---------|---------|---------|---------|

E|---------|---------|---------|---------|---------|---------|---------|---------|---------|
B|---------|---------|---------|---------|---------|---------|---------|---------|---------|
G|-%-------|-%-------|-%-------|-%-------|-%-------|-%-------|-%-------|-%-------|-%-------|
D|-%-------|-%-------|-%-------|-%-------|-%-------|-%-------|-%-------|-%-------|-%-------|
A|---------|---------|---------|---------|---------|---------|---------|---------|---------|
E|---------|---------|---------|---------|---------|---------|---------|---------|---------|

E|---------|---------|---------|---------|---------|---------|---------|---------|---------|
B|---------|---------|---------|---------|---------|---------|---------|---------|---------|
G|-%-------|-%-------|-%-------|-%-------|-%-------|-%-------|-%-------|-%-------|-%-------|
D|-%-------|-%-------|-%-------|-%-------|-%-------|-%-------|-%-------|-%-------|-%-------|
A|---------|---------|---------|---------|---------|---------|---------|---------|---------|
E|---------|---------|---------|---------|---------|---------|---------|---------|---------|

E|---------|---------|---------|---------|---------|---------|---------|---------|---------|
B|---------|---------|-3-------|---------|-3-------|---------|-3-------|---------|---------|
G|-%-------|---------|-2-------|---------|-2-------|---------|-2-------|---------|---------|
D|-%-------|-3-------|-0-------|-3-------|-0-------|-3-------|-0-------|-3-------|-5-------|
A|---------|-3-------|---------|-3-------|---------|-3-------|---------|-3-------|-5-------|
E|---------|-1-------|---------|-1-------|---------|-1-------|---------|-1-------|-3-------|

E|---------|------------------------|---------|------------------------|---------|------------------------|
B|---------|------------------------|---------|------------------------|---------|------------------------|
G|-2-------|------------------------|-2-------|------------------------|-2-------|------------------------|
D|-2-------|-3-----3----5------5----|-2-------|-3-----3----5------5----|-2-------|-3-----3----5------5----|
A|-0-------|-3-----3----5------5----|-0-------|-3-----3----5------5----|-0-------|-3-----3----5------5----|
E|---------|-1-----1----3------3----|---------|-1-----1----3------3----|---------|-1-----1----3------3----|

E|---------|---------|---------|------------------------|---------|------------------------|
B|---------|---------|---------|------------------------|---------|------------------------|
G|---------|---------|-2-------|------------------------|-2-------|------------------------|
D|-3-------|-5-------|-2-------|-3-----3----5------5----|-2-------|-3-----3----5------5----|
A|-3-------|-5-------|-0-------|-3-----3----5------5----|-0-------|-3-----3----5------5----|
E|-1-------|-3-------|---------|-1-----1----3------3----|---------|-1-----1----3------3----|

E|---------|------------------------|---------|---------|-----------------------------------------------|
B|---------|------------------------|---------|---------|-----------------------------------------------|
G|-2-------|------------------------|---------|---------|-4---5---4---2---4----4----4----2---------2----|
D|-2-------|-3-----3----5------5----|-3-------|-5-------|-------------------------------------2---------|
A|-0-------|-3-----3----5------5----|-3-------|-5-------|-----------------------------------------------|
E|---------|-1-----1----3------3----|-1-------|-3-------|-----------------------------------------------|

E|-----------------------------------------------|-----------------------------------------------|
B|-----------------------------------------------|-----------------------------------------------|
G|-4---5---4---2---4----4----4----2---------2----|-2---3---2---0---2----2----2----0---------0----|
D|-------------------------------------2---------|-------------------------------------0---------|
A|-----------------------------------------------|-----------------------------------------------|
E|-----------------------------------------------|-----------------------------------------------|

E|-----------------------------------------------|-----------------------------------------------|
B|-----------------------------------------------|-----------------------------------------------|
G|-2---3---2---0---2----2----2----0---------0----|-4---5---4---2---4----4----4----2---------2----|
D|-------------------------------------0---------|-------------------------------------2---------|
A|-----------------------------------------------|-----------------------------------------------|
E|-----------------------------------------------|-----------------------------------------------|

E|-----------------------------------------------|-----------------------------------------------|
B|-----------------------------------------------|-----------------------------------------------|
G|-4---5---4---2---4----4----4----2---------2----|-2---3---2---0---2----2----2----0---------0----|
D|-------------------------------------2---------|-------------------------------------0---------|
A|-----------------------------------------------|-----------------------------------------------|
E|-----------------------------------------------|-----------------------------------------------|

E|-----------------------------------------------|-----------------------------------------------------|
B|-----------------------------------------------|-----------------------------------------------------|
G|-2---3---2---0---2----2----2----0---------0----|-2---------------------------------------------------|
D|-------------------------------------0---------|-2---------------------------------------------------|
A|-----------------------------------------------|-0----0---0---0----0---0---0----0---0---0----0---0---|
E|-----------------------------------------------|-----------------------------------------------------|

E|-----------------------------------------------------|-----------------------------------------------------|
B|-----------------------------------------------------|-----------------------------------------------------|
G|-----------------------------------------------------|-----------------------------------------------------|
D|-----------------------------------------------------|-5---------------------------------------------------|
A|-0----0---0---0----0---0---0----0---0---0----0---0---|-5---------------------------------------------------|
E|-----------------------------------------------------|-3----3---3---3----3---3---3----3---3---3----3---3---|

E|-----------------------------------------------------|-----------------------------------------------------|
B|-----------------------------------------------------|-----------------------------------------------------|
G|-----------------------------------------------------|-2---------------------------------------------------|
D|-----------------------------------------------------|-2---------------------------------------------------|
A|-----------------------------------------------------|-0----0---0---0----0---0---0----0---0---0----0---0---|
E|-3----3---3---3----3---3---3----3---3---3----3---3---|-----------------------------------------------------|

E|-----------------------------------------------------|-----------------------------------------------------|
B|-----------------------------------------------------|-----------------------------------------------------|
G|-----------------------------------------------------|-----------------------------------------------------|
D|-----------------------------------------------------|-3---------------------------------------------------|
A|-0----0---0---0----0---0---0----0---0---0----0---0---|-3---------------------------------------------------|
E|-----------------------------------------------------|-1----1---1---1----1---1---1----1---1---1----1---1---|

E|-----------------------------------------------------|-----------------------------------------------|
B|-----------------------------------------------------|-----------------------------------------------|
G|-----------------------------------------------------|-4---5---4---2---4----4----4----2---------2----|
D|-5---------------------------------------------------|-------------------------------------2---------|
A|-5---------------------------------------------------|-----------------------------------------------|
E|-3----3---3---3----3---3---3----3---3---3----3---3---|-----------------------------------------------|

E|-----------------------------------------------|-----------------------------------------------|
B|-----------------------------------------------|-----------------------------------------------|
G|-4---5---4---2---4----4----4----2---------2----|-2---3---2---0---2----2----2----0---------0----|
D|-------------------------------------2---------|-------------------------------------0---------|
A|-----------------------------------------------|-----------------------------------------------|
E|-----------------------------------------------|-----------------------------------------------|

E|-----------------------------------------------|-----------------------------------------------|
B|-----------------------------------------------|-----------------------------------------------|
G|-2---3---2---0---2----2----2----0---------0----|-4---5---4---2---4----4----4----2---------2----|
D|-------------------------------------0---------|-------------------------------------2---------|
A|-----------------------------------------------|-----------------------------------------------|
E|-----------------------------------------------|-----------------------------------------------|

E|-----------------------------------------------|-----------------------------------------------|
B|-----------------------------------------------|-----------------------------------------------|
G|-4---5---4---2---4----4----4----2---------2----|-2---3---2---0---2----2----2----0---------0----|
D|-------------------------------------2---------|-------------------------------------0---------|
A|-----------------------------------------------|-----------------------------------------------|
E|-----------------------------------------------|-----------------------------------------------|

E|-----------------------------------------------|---------|------------------------|
B|-----------------------------------------------|---------|------------------------|
G|-2---3---2---0---2----2----2----0---------0----|-2-------|------------------------|
D|-------------------------------------0---------|-2-------|-3-----3----5------5----|
A|-----------------------------------------------|-0-------|-3-----3----5------5----|
E|-----------------------------------------------|---------|-1-----1----3------3----|

E|---------|------------------------|---------|------------------------|---------|---------|
B|---------|------------------------|---------|------------------------|---------|---------|
G|-2-------|------------------------|-2-------|------------------------|---------|---------|
D|-2-------|-3-----3----5------5----|-2-------|-3-----3----5------5----|-3-------|-5-------|
A|-0-------|-3-----3----5------5----|-0-------|-3-----3----5------5----|-3-------|-5-------|
E|---------|-1-----1----3------3----|---------|-1-----1----3------3----|-1-------|-3-------|

E|-------------------------|--------------------------------------------------|-------------------------|
B|-------------------------|------5---5---5----3---3---3----------------------|-------------------------|
G|-2---4---2---0---2-------|-2------------------------------5---5---5----4----|-2---4---2---0---2-------|
D|-------------------------|--------------------------------------------------|-------------------------|
A|-------------------------|--------------------------------------------------|-------------------------|
E|-------------------------|--------------------------------------------------|-------------------------|

E|--------------------------------------------------|-------------------------|--------------------------------------------------|
B|------5---5---5----3---3---3----------------------|-------------------------|------5---5---5----3---3---3----------------------|
G|-2------------------------------5---5---5----4----|-2---4---2---0---2-------|-2------------------------------5---5---5----4----|
D|--------------------------------------------------|-------------------------|--------------------------------------------------|
A|--------------------------------------------------|-------------------------|--------------------------------------------------|
E|--------------------------------------------------|-------------------------|--------------------------------------------------|

E|-------------------------------------|---------|---------|---------|---------|---------|
B|-------------------------------------|---------|---------|---------|---------|---------|
G|-2---4---2---0---2------2----4---2---|-4-------|-2-------|-2-------|---------|---------|
D|-------------------------------------|---------|-2-------|-2-------|-3-------|-3-------|
A|-------------------------------------|---------|-0-------|-0-------|-3-------|-3-------|
E|-------------------------------------|---------|---------|---------|-1-------|-1-------|

E|---------|---------|---------|---------|---------|---------|---------|---------|---------|
B|---------|---------|---------|---------|---------|---------|---------|---------|---------|
G|-5-------|-5-------|---------|---------|-2-------|-2-------|---------|---------|-5-------|
D|-5-------|-5-------|-3-------|-5-------|-2-------|-2-------|-3-------|-3-------|-5-------|
A|-3-------|-3-------|-3-------|-5-------|-0-------|-0-------|-3-------|-3-------|-3-------|
E|---------|---------|-1-------|-3-------|---------|---------|-1-------|-1-------|---------|

E|---------|---------|---------|-------------------------|--------------------------------------------------|
B|---------|---------|---------|-------------------------|------5---5---5----3---3---3----------------------|
G|-5-------|---------|---------|-2---4---2---0---2-------|-2------------------------------5---5---5----4----|
D|-5-------|-3-------|-5-------|-------------------------|--------------------------------------------------|
A|-3-------|-3-------|-5-------|-------------------------|--------------------------------------------------|
E|---------|-1-------|-3-------|-------------------------|--------------------------------------------------|

E|-------------------------|--------------------------------------------------|-------------------------|
B|-------------------------|------5---5---5----3---3---3----------------------|-------------------------|
G|-2---4---2---0---2-------|-2------------------------------5---5---5----4----|-2---4---2---0---2-------|
D|-------------------------|--------------------------------------------------|-------------------------|
A|-------------------------|--------------------------------------------------|-------------------------|
E|-------------------------|--------------------------------------------------|-------------------------|

E|--------------------------------------------------|-------------------------------------|
B|------5---5---5----3---3---3----------------------|-------------------------------------|
G|-2------------------------------5---5---5----4----|-2---4---2---0---2------2----4---2---|
D|--------------------------------------------------|-------------------------------------|
A|--------------------------------------------------|-------------------------------------|
E|--------------------------------------------------|-------------------------------------|

E|---------|---------|------------------------|---------|------------------------|---------|
B|---------|---------|------------------------|---------|------------------------|---------|
G|-4-------|-2-------|------------------------|-2-------|------------------------|-2-------|
D|---------|-2-------|-3-----3----5------5----|-2-------|-3-----3----5------5----|-2-------|
A|---------|-0-------|-3-----3----5------5----|-0-------|-3-----3----5------5----|-0-------|
E|---------|---------|-1-----1----3------3----|---------|-1-----1----3------3----|---------|

E|------------------------|---------|---------|---------|------------------------|---------|
B|------------------------|---------|---------|---------|------------------------|---------|
G|------------------------|---------|---------|-2-------|------------------------|-2-------|
D|-3-----3----5------5----|-3-------|-5-------|-2-------|-3-----3----5------5----|-2-------|
A|-3-----3----5------5----|-3-------|-5-------|-0-------|-3-----3----5------5----|-0-------|
E|-1-----1----3------3----|-1-------|-3-------|---------|-1-----1----3------3----|---------|

E|------------------------|---------|------------------------|---------|---------|---------|
B|------------------------|---------|------------------------|---------|---------|---------|
G|------------------------|-2-------|------------------------|---------|---------|-%-------|
D|-3-----3----5------5----|-2-------|-3-----3----5------5----|-3-------|-5-------|-%-------|
A|-3-----3----5------5----|-0-------|-3-----3----5------5----|-3-------|-5-------|---------|
E|-1-----1----3------3----|---------|-1-----1----3------3----|-1-------|-3-------|---------|

E|---------|---------|---------|---------|---------|---------|---------|---------|---------|
B|---------|---------|---------|---------|---------|---------|---------|---------|---------|
G|-%-------|-%-------|-%-------|-%-------|-%-------|-%-------|-%-------|-%-------|-%-------|
D|-%-------|-%-------|-%-------|-%-------|-%-------|-%-------|-%-------|-%-------|-%-------|
A|---------|---------|---------|---------|---------|---------|---------|---------|---------|
E|---------|---------|---------|---------|---------|---------|---------|---------|---------|
Iron Maiden - Dream Of Mirrors
Iron Maiden - Dream Of Mirrors.gp3