Iron Maiden - Face In The Sand

Iron Maiden



Title: Face in the sand (intro)
Album: Dance of Death
Artist: Iron Maiden
Author: Adrian Smith/Steve Harris/Bruce Dickinson

Track 1: Guitar 1
E|---------------------------------|-----------------------------|-----------------------------|
B|---------------------------3-----|-3---------------------------|-----------------------------|
G|-4-----4----4----4----4----------|------4----2-----0------2----|-4-----2------0--------------|
D|---------------------------------|-----------------------------|-------------------4----4----|
A|---------------------------------|-----------------------------|-----------------------------|
E|---------------------------------|-----------------------------|-----------------------------|

E|---------------------------------|-----------------------------|--------------------|
B|---------------------------3-----|-3---------------------------|--------------------|
G|-4-----4----4----4----4----------|------4----2-----0------2----|-4-----2------%-----|
D|---------------------------------|-----------------------------|--------------%-----|
A|---------------------------------|-----------------------------|--------------------|
E|---------------------------------|-----------------------------|--------------------|

E|---------------------------------|-----------------------------|-----------------------------|
B|---------------------------3-----|-3---------------------------|-----------------------------|
G|-4-----4----4----4----4----------|------4----2-----0------2----|-4-----2------0--------------|
D|---------------------------------|-----------------------------|-------------------4----4----|
A|---------------------------------|-----------------------------|-----------------------------|
E|---------------------------------|-----------------------------|-----------------------------|

E|-------------------------|-----------------------------|-------------------------|
B|-------------------------|-----------------------------|-------------------------|
G|-------------0-----0-----|-0----2----4-----2------0----|-------------0-----------|
D|-2------4----------------|-----------------------------|-4-----0-----------4-----|
A|-------------------------|-----------------------------|-------------------------|
E|-------------------------|-----------------------------|-------------------------|

E|-------------------------|-----------------------------|-------------------------|
B|-------------------------|-----------------------------|-------------------------|
G|--------0----------------|------0-----------------0----|--------------0----------|
D|-2-----------4-----2-----|-2---------4-----2-----------|-4-----0-----------4-----|
A|-------------------------|-----------------------------|-------------------------|
E|-------------------------|-----------------------------|-------------------------|

E|-------------------------|------------------------|--------------------|-------------------------|
B|-------------------------|------------------------|--------------------|-------------------------|
G|--------0----------------|------0-----------------|--------0-----------|--------0----------------|
D|-2-----------4-----2-----|-2---------4-----0------|-0------------4-----|-2-----------4-----2-----|
A|-------------------------|------------------------|--------------------|-------------------------|
E|-------------------------|------------------------|--------------------|-------------------------|

E|-----------------------------|-------------------------|-------------------------|
B|-----------------------------|-------------------------|-------------------------|
G|------0-----------------0----|--------------0----------|-------------0-----0-----|
D|-2---------4-----2-----------|-4-----0-----------4-----|-2------4----------------|
A|-----------------------------|-------------------------|-------------------------|
E|-----------------------------|-------------------------|-------------------------|

E|-----------------------------|---------|---------|
B|-----------------------------|---------|---------|
G|-0----2----4-----2------2----|-%-------|-%-------|
D|-----------------------------|-%-------|-%-------|
A|-----------------------------|---------|---------|
E|-----------------------------|---------|---------|
Iron Maiden - Face In The Sand
Iron Maiden - Face In The Sand.gp4