Iron Maiden - Fear Is the Key

Iron Maiden



Title: Fear Is the Key
Album: Fear Of The Dark
Artist: Iron Maiden
Author: Words by Bruce Dickinson and Janick Gers

Track 1: Dave (Guitar) 
E|--------|----------------|------------------------------------|-------------------------------|
B|--------|----------------|------------------------------------|-------------------------------|
G|-%------|-%-------%------|-%------4-----9-----9----9----7-----|-5----4------%----%------%-----|
D|-%------|-%-------%------|-%----------------------------------|-------------%----%------%-----|
A|--------|----------------|------------------------------------|-------------------------------|
E|--------|----------------|------------------------------------|-------------------------------|

E|-------------------------|---------|------10----------------------------|------------------------|
B|--------------------5----|-10------|-10--------10--9---6----5-----5-----|-0----------------------|
G|-%-------%-----%---------|---------|------------------------------------|------%----%-----%------|
D|-%-------%-----%---------|---------|------------------------------------|------%----%-----%------|
A|-------------------------|---------|------------------------------------|------------------------|
E|-------------------------|---------|------------------------------------|------------------------|

E|---------|---------|---------|---------|---------|---------|---------|---------|---------|
B|---------|---------|---------|---------|---------|---------|---------|---------|---------|
G|-%-------|-%-------|-%-------|-%-------|-%-------|-%-------|-%-------|-%-------|-%-------|
D|-%-------|-%-------|-%-------|-%-------|-%-------|-%-------|-%-------|-%-------|-%-------|
A|---------|---------|---------|---------|---------|---------|---------|---------|---------|
E|---------|---------|---------|---------|---------|---------|---------|---------|---------|

E|---------|---------|---------|---------|---------|---------|---------|---------|---------|
B|---------|---------|---------|---------|---------|---------|---------|---------|---------|
G|-%-------|-%-------|-%-------|-%-------|-%-------|-%-------|-%-------|-%-------|-%-------|
D|-%-------|-%-------|-%-------|-%-------|-%-------|-%-------|-%-------|-%-------|-%-------|
A|---------|---------|---------|---------|---------|---------|---------|---------|---------|
E|---------|---------|---------|---------|---------|---------|---------|---------|---------|

E|----------------|---------------------|-------------------------|---------|-------------------------|
B|----------------|---------------------|-------------------------|---------|-------------------------|
G|-%-------%------|-%-------%-----7-----|-9-------9----7-----5----|-4-------|-------------------------|
D|-%-------%------|-%-------%-----------|-------------------------|---------|-2-----2-----2-----2-----|
A|----------------|---------------------|-------------------------|---------|-0-----0-----0-----0-----|
E|----------------|---------------------|-------------------------|---------|-------------------------|

E|---------|---------|---------|---------|---------|---------|---------|---------|---------|
B|---------|---------|---------|---------|---------|---------|---------|---------|---------|
G|-5-------|-%-------|-%-------|-%-------|-%-------|-%-------|-%-------|-%-------|-%-------|
D|---------|-%-------|-%-------|-%-------|-%-------|-%-------|-%-------|-%-------|-%-------|
A|---------|---------|---------|---------|---------|---------|---------|---------|---------|
E|---------|---------|---------|---------|---------|---------|---------|---------|---------|

E|---------|---------|---------|---------|---------|---------|---------|----------------|
B|---------|---------|---------|---------|---------|---------|---------|----------------|
G|-%-------|-%-------|-%-------|-%-------|-%-------|-%-------|-%-------|-%-------%------|
D|-%-------|-%-------|-%-------|-%-------|-%-------|-%-------|-%-------|-%-------%------|
A|---------|---------|---------|---------|---------|---------|---------|----------------|
E|---------|---------|---------|---------|---------|---------|---------|----------------|

E|------12---11---12---11-------------------------|-14----14----14---14--14--14---12---12--------------|
B|--------------------------13---13---12---12-----|------------------------------------------10---9----|
G|-%----------------------------------------------|----------------------------------------------------|
D|-%----------------------------------------------|----------------------------------------------------|
A|------------------------------------------------|----------------------------------------------------|
E|------------------------------------------------|----------------------------------------------------|

E|---------------------------------------------|---------|---------|---------|---------|
B|---------------------------------------------|---------|---------|---------|---------|
G|-10---9----9-----9-----9-----10---%----%-----|-%-------|-%-------|-%-------|-%-------|
D|----------------------------------%----%-----|-%-------|-%-------|-%-------|-%-------|
A|---------------------------------------------|---------|---------|---------|---------|
E|---------------------------------------------|---------|---------|---------|---------|

E|---------|---------|---------|---------|---------------------------------|-------------------------------------------------|
B|---------|---------|---------|---------|---------------------------------|-------------------------------------------------|
G|-%-------|-%-------|-%-------|-%-------|------%----%----------%----%-----|------%----%-----%-------------------------------|
D|-%-------|-%-------|-%-------|-%-------|------%----%----------%----%-----|------%----%-----%-------------------------------|
A|---------|---------|---------|---------|-2---------------2---------------|-2-------------------3---2---0---------------0---|
E|---------|---------|---------|---------|-0---------------0---------------|-0-------------------------------3---2---3-------|

E|---------------------------------|-------------------------------------------|---------------------------------|
B|---------------------------------|-------------------------------------------|---------------------------------|
G|------%----%----------%----%-----|------%----%-----%-------------------------|------%----%----------%----%-----|
D|------%----%----------%----%-----|------%----%-----%----5--------------------|------%----%----------%----%-----|
A|-2---------------2---------------|-2--------------------3----2---0-----------|-2---------------2---------------|
E|-0---------------0---------------|-0---------------------------------3---2---|-0---------------0---------------|

E|-------------------------------------------------|---------------------------------|
B|-------------------------------------------------|---------------------------------|
G|------%----%-----%-------------------------------|------%----%----------%----%-----|
D|------%----%-----%-------------------------------|------%----%----------%----%-----|
A|-2-------------------3---2---0---------------0---|-2---------------2---------------|
E|-0-------------------------------3---2---3-------|-0---------------0---------------|

E|----------------------------------|---------------------------------|---------------------------|
B|----------------------------------|---------------------------------|---------------------------|
G|------%----%----------------------|------%----%----------%----%-----|-%------%------------------|
D|------%----%----------------------|------%----%----------%----%-----|-%------%-----2---4---5----|
A|-2--------------------------------|-2---------------2---------------|---------------------------|
E|-0----------------3---3---2---3---|-0---------------0---------------|---------------------------|

E|---------------------------------------|----------------------|---------------------------------------|
B|---------------------------------------|----------------------|---------------------------------------|
G|--------------------------14--14--12---|----------------------|--------------------------14--14--12---|
D|-------4---5---7-----------------------|-14------2---4---5----|-------4---5---7-----------------------|
A|-3------------------5------------------|----------------------|-3------------------5------------------|
E|---------------------------------------|----------------------|---------------------------------------|

E|-------------------------------|---------------------------------------|----------------------|
B|------15---15------------------|---------------------------------------|----------------------|
G|-------------------------------|--------------------------14--14--12---|----------------------|
D|-14---------------2---4---5----|-------4---5---7-----------------------|-14------2---4---5----|
A|-------------------------------|-3------------------5------------------|----------------------|
E|-------------------------------|---------------------------------------|----------------------|

E|---------------------------|------------0----0------|------------0----0------|------------0----0------|
B|---------------------------|------------1----1------|------------0----0------|------------0----0------|
G|---------------------------|-%-----%----0----0------|-%-----%----0----0------|-%-----%----2----2------|
D|-------4---5---7----7------|-%-----%----------------|-%-----%----------------|-%-----%----4----4------|
A|-3-------------------------|------------------------|------------------------|------------------------|
E|---------------------------|------------------------|------------------------|------------------------|

E|------------0----0------|------------0----0------|------------0----0------|------------0----0------|
B|------------0----0------|------------1----1------|------------0----0------|------------0----0------|
G|-%-----%----0----0------|-%-----%----0----0------|-%-----%----0----0------|-%-----%----2----2------|
D|-%-----%----------------|-%-----%----------------|-%-----%----------------|-%-----%----4----4------|
A|------------------------|------------------------|------------------------|------------------------|
E|------------------------|------------------------|------------------------|------------------------|

E|------------0----0------|------------0----0------|------------0----0------|------------0----0------|
B|------------0----0------|------------3----3------|------------2----2------|------------3----3------|
G|-%-----%----0----0------|-%-----%----2----2------|-%-----%----2----2------|-%-----%----2----2------|
D|-%-----%----------------|-%-----%----------------|-%-----%----------------|-%-----%----------------|
A|------------------------|------------------------|------------------------|------------------------|
E|------------------------|------------------------|------------------------|------------------------|

E|------------0----0------|------------0----0------|------------0----0------|------------0----0------|
B|------------2----2------|------------1----1------|------------0----0------|------------0----0------|
G|-%-----%----2----2------|-%-----%----0----0------|-%-----%----0----0------|-%-----%----2----2------|
D|-%-----%----------------|-%-----%----------------|-%-----%----------------|-%-----%----4----4------|
A|------------------------|------------------------|------------------------|------------------------|
E|------------------------|------------------------|------------------------|------------------------|

E|------------0----0------|---------------|---------------|---------------|---------|
B|------------0----0------|---------------|---------------|---------------|---------|
G|-%-----%----0----0------|-2------5------|-4------7------|-5------9------|-8-------|
D|-%-----%----------------|-2------5------|-4------7------|-5------9------|-8-------|
A|------------------------|-0------3------|-2------5------|-3------7------|-6-------|
E|------------------------|---------------|---------------|---------------|---------|

E|-------------------|---------------|---------------|---------------|-------------------|
B|-------------------|---------------|---------------|---------------|-------------------|
G|-8-----12----11----|-2------5------|-4------7------|-5------9------|-8-----12----11----|
D|-8-----12----11----|-2------5------|-4------7------|-5------9------|-8-----12----11----|
A|-6-----10----9-----|-0------3------|-2------5------|-3------7------|-6-----10----9-----|
E|-------------------|---------------|---------------|---------------|-------------------|

E|-----------------7---8---8---7-------7------------------------------|---------------------11----12----11--12--11--12--|
B|-10----10---10-------------------10------10--8---8-----7----8---7---|-------------------------------------------------|
G|--------------------------------------------------------------------|-9----8---9---9----------------------------------|
D|--------------------------------------------------------------------|-------------------------------------------------|
A|--------------------------------------------------------------------|-------------------------------------------------|
E|--------------------------------------------------------------------|-------------------------------------------------|

E|-----------------------------------------------------------------|------------------------------------------------------------------------------------|
B|-13--12--13--12--10----10---10--8---10----9----10---10---9---6---|-6--5--6--5------------------------------------------------------------------15-----|
G|-----------------------------------------------------------------|-------------6--5--6--5-----5-----5---4------4--5--4-----4--------------------------|
D|-----------------------------------------------------------------|-------------------------7-----7----------6-----------6-----6-----------7-----------|
A|-----------------------------------------------------------------|---------------------------------------------------------------7---7----------------|
E|-----------------------------------------------------------------|------------------------------------------------------------------------------------|

E|----------------------------------------------------------------|---------------------------------------------------------------12----------11----------|
B|-15----15----15--13--12--13--12----12---------------------------|-----------------------------------------------------------13----------13------13--12--|
G|----------------------------------------14--13--14--13----------|-----------------------------------------12--11--11----14----------14------------------|
D|----------------------------------------------------------------|-------------13--14--13------13------13------------------------------------------------|
A|----------------------------------------------------------------|-------------------------15------14----------------------------------------------------|
E|--------------------------------------------------------15--14--|-12--14--15----------------------------------------------------------------------------|

E|--------------------------------------------------------------------------|------------------------------------------------------15-------------------------------------14----|
B|-13--12------12---------------------15----13--12--13--12--13--12------12--|-12--13--12------12--15--15---12--13--12------12--13-------12--13--12------12------13---13---------|
G|---------14------14--12--11---11----------------------------------14------|-------------14---------------------------14---------------------------14------14------------------|
D|--------------------------------------------------------------------------|---------------------------------------------------------------------------------------------------|
A|--------------------------------------------------------------------------|---------------------------------------------------------------------------------------------------|
E|--------------------------------------------------------------------------|---------------------------------------------------------------------------------------------------|

E|-15------|---------|---------|---------|---------|---------|---------|---------|---------|
B|---------|---------|---------|---------|---------|---------|---------|---------|---------|
G|---------|-%-------|-%-------|-%-------|-%-------|-%-------|-%-------|-%-------|-%-------|
D|---------|-%-------|-%-------|-%-------|-%-------|-%-------|-%-------|-%-------|-%-------|
A|---------|---------|---------|---------|---------|---------|---------|---------|---------|
E|---------|---------|---------|---------|---------|---------|---------|---------|---------|

E|---------|
B|---------|
G|-%-------|
D|-%-------|
A|---------|
E|---------|
Iron Maiden - Fear Is the Key
Iron Maiden - Fear Is the Key.gp3