Iron Maiden - Fear of the Dark (studio solos)

Iron Maiden - Fear of the Dark (studio solos)

Iron Maiden



Title: Fear of the Dark (studio solo)
Album: 
Artist: Iron Maiden
Author: Steve Harris

Track 1: Lead Guitar
E|-------------------------------------------------|----------------10--10--10-----13---|
B|-13---13-----------------------------------------|----------------10--10--10----------|
G|-12---12---12--12--10------10----10--0-----------|-10----12--12-----------------------|
D|-----------------------12------------------------|-10---------------------------------|
A|-----------------------------------------10--12--|------------------------------------|
E|-------------------------------------------------|------------------------------------|

E|-13----13--12--10------10----------------------------------|---------------------------------|
B|-------------------10------13--11--10------10--------------|---------------------------------|
G|---------------------------------------12------12--10------|-10---12----10---10---10----2----|
D|-------------------------------------------------------12--|---------------------------------|
A|-----------------------------------------------------------|---------------------------------|
E|-----------------------------------------------------------|---------------------------------|

E|-15----15--13--12--13--------------------------------|------------------------------|
B|-----------------------13--------------13------------|-10---------------------------|
G|-----------------------------------12------12---10---|-12----12--12--10------10-----|
D|-------------------------------14--------------------|-------------------12---------|
A|---------------------------15------------------------|------------------------------|
E|-----------------------------------------------------|------------------------------|

E|-13----------------------------------------------------|-----------------------------------17--|
B|-13----------------------------------------------------|-------------------------------14------|
G|-12----12--10------10----------------------------------|---------------------------------------|
D|---------------12------12--10------10------------------|---------------------------------------|
A|-------------------------------12------12--11--10--8---|-10--8---------------------------------|
E|-------------------------------------------------------|---------10---10----10----X------------|

E|-17----17----16--17--16-14-16-14----15-14--------------|---------------------------------------------------------------------------------|
B|---------------------------------17-------17-14-----14-|-17-14----14-17-14----14-15-14----14-15--14--------------------14--15--14---17---|
G|-------------------------------------------------16----|-------16----------16----------16-----------16-14--13--14--16--------------------|
D|-------------------------------------------------------|---------------------------------------------------------------------------------|
A|-------------------------------------------------------|---------------------------------------------------------------------------------|
E|-------------------------------------------------------|---------------------------------------------------------------------------------|

E|----------17--14----------------------------------------------------------|------------------------------------------------------------19--19--|
B|-17--14-----------17--14------15-14----14-17--14------14------------------|--------------------------------------------------------------------|
G|--------------------------X---------16------------16------16--14-16-14----|-14------------------------------------14--16--16--14--X------------|
D|-----------------------------------------------------------------------16-|-----16-14-16--14--------------14--16-------------------------------|
A|--------------------------------------------------------------------------|-------------------16--16--16---------------------------------------|
E|--------------------------------------------------------------------------|--------------------------------------------------------------------|

E|-19-----19---17--16------------------------------|-14-17--16-14----14-16-14--------------------------------------------------------------|
B|---------------------17--------------14--15--16--|--------------17-----------17-15-14--14-15-14--14--14--15--14--------------------------|
G|-------------------------16--14--16--------------|---------------------------------------------------------------16--18---18-19-18-19-18-|
D|-------------------------------------------------|---------------------------------------------------------------------------------------|
A|-------------------------------------------------|---------------------------------------------------------------------------------------|
E|-------------------------------------------------|---------------------------------------------------------------------------------------|

E|----------------------------------------------------------------------|-------------------------------------------------|
B|--------------------------------------------------------------14--19--|-19---14--19--14------------------14--19--19-----|
G|-19---18-19-18-16-18---16-18-16-14-16---14-16-14-13-14-----14---------|------------------14--14------14-----------------|
D|--------------------------------------------------------14------------|--------------------------14---------------------|
A|----------------------------------------------------------------------|-------------------------------------------------|
E|----------------------------------------------------------------------|-------------------------------------------------|
Iron Maiden - Fear of the Dark (studio solos)
Iron Maiden - Fear of the Dark (studio solos).gp3