Iron Maiden - Flight of Icarus solos

Iron Maiden



Title: Flight of icarus solos
Album: Piece of mind
Artist: Iron Maiden
Author: Bruce Dickinson & Steve Harris

Track 1: Adrian
E|-----------------------------------------------------|---------------------------------------|
B|-----------------------------------------------------|---------------------------------------|
G|-----------------------------------------------------|---------------------------------------|
D|-----------------------------------------------------|---------------------------7-----2-----|
A|-4----4---4---4----4---4---4----4---4---4----4---4---|-4----4---4---4----4---4---7-----2-----|
E|-2----2---2---2----2---2---2----2---2---2----2---2---|-2----2---2---2----2---2---5-----0-----|

E|-----------------------------------------------------|---------------------------------------|
B|-----------------------------------------------------|---------------------------------------|
G|-----------------------------------------------------|---------------------------------------|
D|-----------------------------------------------------|---------------------------7-----2-----|
A|-4----4---4---4----4---4---4----4---4---4----4---4---|-4----4---4---4----4---4---7-----2-----|
E|-2----2---2---2----2---2---2----2---2---2----2---2---|-2----2---2---2----2---2---5-----0-----|

E|-----------------------------------------------------|---------------------------------------|
B|-----------------------------------------------------|---------------------------------------|
G|-----------------------------------------------------|---------------------------------------|
D|-----------------------------------------------------|---------------------------7-----2-----|
A|-4----4---4---4----4---4---4----4---4---4----4---4---|-4----4---4---4----4---4---7-----2-----|
E|-2----2---2---2----2---2---2----2---2---2----2---2---|-2----2---2---2----2---2---5-----0-----|

E|-----------------------------------------------------|---------------------------------------|
B|-----------------------------------------------------|---------------------------------------|
G|-----------------------------------------------------|---------------------------------------|
D|-----------------------------------------------------|---------------------------7-----2-----|
A|-4----4---4---4----4---4---4----4---4---4----4---4---|-4----4---4---4----4---4---7-----2-----|
E|-2----2---2---2----2---2---2----2---2---2----2---2---|-2----2---2---2----2---2---5-----0-----|

E|-17----17----------14---|-17----17-----17---14-17-14--|-----14------------14--------------------------------------|
B|--------------14--------|-----------------------------|-17------17---17-------17--14--------------14--------------|
G|------------------------|-----------------------------|-------------------------------16--16--16------16--14------|
D|------------------------|-----------------------------|-------------------------------------------------------16--|
A|------------------------|-----------------------------|-----------------------------------------------------------|
E|------------------------|-----------------------------|-----------------------------------------------------------|

E|-------------------------------------------|-----------------------------------------|
B|-------------------------------------------|-----------14--------14--------14--------|
G|-14--13-------13--11-------11--------------|-11---11--------11--------11--------11---|
D|-16------16-----------14--------9----9-----|-----------------------------------------|
A|-------------------------------------------|-----------------------------------------|
E|-------------------------------------------|-----------------------------------------|

E|----------------------------|-------------14------14------14------14------14------14------14--|
B|-14-------------------------|-15--17--17------17------17------17------17------17------17------|
G|------11---7----11---11-----|-----------------------------------------------------------------|
D|----------------------------|-----------------------------------------------------------------|
A|----------------------------|-----------------------------------------------------------------|
E|----------------------------|-----------------------------------------------------------------|

E|-14------------------------------17--14------14------------------|-----------------------------------------------------------------|
B|-----17--14------------------------------17------17--14------14--|-----------------------------------------------------------------|
G|-------------17--16--16--16--16--------------------------17------|-17--16--14--16--14--13--13--13----------------------------------|
D|-----------------------------------------------------------------|-----------------------------------------14--16--14--14--14--11--|
A|-----------------------------------------------------------------|---------------------------------14--16--------------------------|
E|-----------------------------------------------------------------|-----------------------------------------------------------------|

E|-------------------------------------------------------------------------------------------------|
B|-------------------------------------------------------------------------------------------------|
G|-6--9--6--9--6--9--6--9--6--9--6--9--6--9--6--9--6--9--6--9--6--9--6--9--6--9--6--9--6--9--6--9--|
D|-------------------------------------------------------------------------------------------------|
A|-------------------------------------------------------------------------------------------------|
E|-------------------------------------------------------------------------------------------------|

E|---------|
B|---------|
G|-%-------|
D|-%-------|
A|---------|
E|---------|
Iron Maiden - Flight of Icarus solos
Iron Maiden - Flight of Icarus solos.gp3