Iron Maiden - Fortunes Of War

Iron Maiden - Fortunes Of War

Iron Maiden



Title: Fortunes Of War
Album: The X Factor
Artist: Iron Maiden
Author: Words and Music by STEVE HARRIS

Track 1: Intro (clean)
E|-----------------------------------------------------------------|-----------------------------------------------------------------|
B|-----------------------------------------------------------------|-----------------------------------------------------------------|
G|---------9-------9-------9---------------12------12------12------|---------7-------7-------7---------------4-------4-------4-------|
D|-----9-------9-------9-------9-------12------12------12------12--|-----7-------7-------7-------7-------4-------4-------4-------4---|
A|-7-------------------------------10------------------------------|-5-------------------------------2-------------------------------|
E|-----------------------------------------------------------------|-----------------------------------------------------------------|

E|-----------------------------------------------------------------|-----------------------------------------------------------------|
B|-----------------------------------------------------------------|-----------------------------------------------------------------|
G|---------5-------5-------5---------------7-------7-------7-------|---------9-------9-------9---------------9-------9-------9-------|
D|-----5-------5-------5-------5-------7-------7-------7-------7---|-----9-------9-------9-------9-------9-------9-------9-------9---|
A|-3-------------------------------5-------------------------------|-7-------------------------------7-------------------------------|
E|-----------------------------------------------------------------|-----------------------------------------------------------------|

E|-----------------------------------------------------------------|-----------------------------------------------------------------|
B|-----------------------------------------------------------------|-----------------------------------------------------------------|
G|---------9-------9-------9---------------12------12------12------|---------7-------7-------7---------------4-------4-------4-------|
D|-----9-------9-------9-------9-------12------12------12------12--|-----7-------7-------7-------7-------4-------4-------4-------4---|
A|-7-------------------------------10------------------------------|-5-------------------------------2-------------------------------|
E|-----------------------------------------------------------------|-----------------------------------------------------------------|

E|-----------------------------------------------------------------|-----------------------------------------------------------------|
B|-----------------------------------------------------------------|-----------------------------------------------------------------|
G|---------5-------5-------5---------------7-------7-------7-------|---------9-------9-------9---------------9-------9-------9-------|
D|-----5-------5-------5-------5-------7-------7-------7-------7---|-----9-------9-------9-------9-------9-------9-------9-------9---|
A|-3-------------------------------5-------------------------------|-7-------------------------------7-------------------------------|
E|-----------------------------------------------------------------|-----------------------------------------------------------------|

E|-----------------------------------------------------------------|-----------------------------------------------------------------|
B|-----------------------------------------------------------------|-----------------------------------------------------------------|
G|---------9-------9-------9---------------12------12------12------|---------7-------7-------7---------------4-------4-------4-------|
D|-----9-------9-------9-------9-------12------12------12------12--|-----7-------7-------7-------7-------4-------4-------4-------4---|
A|-7-------------------------------10------------------------------|-5-------------------------------2-------------------------------|
E|-----------------------------------------------------------------|-----------------------------------------------------------------|

E|-----------------------------------------------------------------|-----------------------------------------------------------------|
B|-----------------------------------------------------------------|-----------------------------------------------------------------|
G|---------5-------5-------5---------------7-------7-------7-------|---------9-------9-------9---------------9-------9-------9-------|
D|-----5-------5-------5-------5-------7-------7-------7-------7---|-----9-------9-------9-------9-------9-------9-------9-------9---|
A|-3-------------------------------5-------------------------------|-7-------------------------------7-------------------------------|
E|-----------------------------------------------------------------|-----------------------------------------------------------------|

E|-----------------------------------------------------------------|-----------------------------------------------------------------|
B|-----------------------------------------------------------------|-----------------------------------------------------------------|
G|---------9-------9-------9---------------12------12------12------|---------7-------7-------7---------------4-------4-------4-------|
D|-----9-------9-------9-------9-------12------12------12------12--|-----7-------7-------7-------7-------4-------4-------4-------4---|
A|-7-------------------------------10------------------------------|-5-------------------------------2-------------------------------|
E|-----------------------------------------------------------------|-----------------------------------------------------------------|

E|-----------------------------------------------------------------|-----------------------------------------------------------------|
B|-----------------------------------------------------------------|-----------------------------------------------------------------|
G|---------5-------5-------5---------------7-------7-------7-------|---------9-------9-------9---------------9-------9-------9-------|
D|-----5-------5-------5-------5-------7-------7-------7-------7---|-----9-------9-------9-------9-------9-------9-------9-------9---|
A|-3-------------------------------5-------------------------------|-7-------------------------------7-------------------------------|
E|-----------------------------------------------------------------|-----------------------------------------------------------------|

E|-----------------------------------------------------------------|-----------------------------------------------------------------|
B|-----------------------------------------------------------------|-----------------------------------------------------------------|
G|---------9-------9-------9---------------12------12------12------|---------7-------7-------7---------------4-------4-------4-------|
D|-----9-------9-------9-------9-------12------12------12------12--|-----7-------7-------7-------7-------4-------4-------4-------4---|
A|-7-------------------------------10------------------------------|-5-------------------------------2-------------------------------|
E|-----------------------------------------------------------------|-----------------------------------------------------------------|

E|-----------------------------------------------------------------|-----------------------------------------------------------------|
B|-----------------------------------------------------------------|-----------------------------------------------------------------|
G|---------5-------5-------5---------------7-------7-------7-------|---------9-------9-------9---------------9-------9-------9-------|
D|-----5-------5-------5-------5-------7-------7-------7-------7---|-----9-------9-------9-------9-------9-------9-------9-------9---|
A|-3-------------------------------5-------------------------------|-7-------------------------------7-------------------------------|
E|-----------------------------------------------------------------|-----------------------------------------------------------------|

E|-----------------------------------------------------------------|-----------------------------------------------------------------|
B|-----------------------------------------------------------------|-----------------------------------------------------------------|
G|---------9-------9-------9---------------12------12------12------|---------7-------7-------7---------------4-------4-------4-------|
D|-----9-------9-------9-------9-------12------12------12------12--|-----7-------7-------7-------7-------4-------4-------4-------4---|
A|-7-------------------------------10------------------------------|-5-------------------------------2-------------------------------|
E|-----------------------------------------------------------------|-----------------------------------------------------------------|

E|-----------------------------------------------------------------|-----------------------------------------------------------------|
B|-----------------------------------------------------------------|-----------------------------------------------------------------|
G|---------5-------5-------5---------------7-------7-------7-------|---------9-------9-------9---------------9-------9-------9-------|
D|-----5-------5-------5-------5-------7-------7-------7-------7---|-----9-------9-------9-------9-------9-------9-------9-------9---|
A|-3-------------------------------5-------------------------------|-7-------------------------------7-------------------------------|
E|-----------------------------------------------------------------|-----------------------------------------------------------------|

E|-----------------------------------------------------------------|-----------------------------------------------------------------|
B|-----------------------------------------------------------------|-----------------------------------------------------------------|
G|---------9-------9-------9---------------12------12------12------|---------7-------7-------7---------------4-------4-------4-------|
D|-----9-------9-------9-------9-------12------12------12------12--|-----7-------7-------7-------7-------4-------4-------4-------4---|
A|-7-------------------------------10------------------------------|-5-------------------------------2-------------------------------|
E|-----------------------------------------------------------------|-----------------------------------------------------------------|

E|-----------------------------------------------------------------|-------------------------------------------------|
B|-----------------------------------------------------------------|-------------------------------------------------|
G|---------5-------5-------5---------------7-------7-------7-------|---------9-------9-------9-------9---9-----9-----|
D|-----5-------5-------5-------5-------7-------7-------7-------7---|-----9-------9-------9-------9-------------------|
A|-3-------------------------------5-------------------------------|-7-----------------------------------------------|
E|-----------------------------------------------------------------|-------------------------------------------------|

E|---------|---------|---------|---------|---------|---------|---------|---------|---------|
B|---------|---------|---------|---------|---------|---------|---------|---------|---------|
G|-%-------|-%-------|-%-------|-%-------|-%-------|-%-------|-%-------|-%-------|-%-------|
D|-%-------|-%-------|-%-------|-%-------|-%-------|-%-------|-%-------|-%-------|-%-------|
A|---------|---------|---------|---------|---------|---------|---------|---------|---------|
E|---------|---------|---------|---------|---------|---------|---------|---------|---------|

E|---------|---------|---------|---------|---------|---------|---------|---------|---------|
B|---------|---------|---------|---------|---------|---------|---------|---------|---------|
G|-%-------|-%-------|-%-------|-%-------|-%-------|-%-------|-%-------|-%-------|-%-------|
D|-%-------|-%-------|-%-------|-%-------|-%-------|-%-------|-%-------|-%-------|-%-------|
A|---------|---------|---------|---------|---------|---------|---------|---------|---------|
E|---------|---------|---------|---------|---------|---------|---------|---------|---------|

E|---------|---------|---------|---------|---------|---------|---------|---------|---------|
B|---------|---------|---------|---------|---------|---------|---------|---------|---------|
G|-%-------|-%-------|-%-------|-%-------|-%-------|-%-------|-%-------|-%-------|-%-------|
D|-%-------|-%-------|-%-------|-%-------|-%-------|-%-------|-%-------|-%-------|-%-------|
A|---------|---------|---------|---------|---------|---------|---------|---------|---------|
E|---------|---------|---------|---------|---------|---------|---------|---------|---------|

E|---------|---------|---------|---------|---------|---------|---------|---------|---------|
B|---------|---------|---------|---------|---------|---------|---------|---------|---------|
G|-%-------|-%-------|-%-------|-%-------|-%-------|-%-------|-%-------|-%-------|-%-------|
D|-%-------|-%-------|-%-------|-%-------|-%-------|-%-------|-%-------|-%-------|-%-------|
A|---------|---------|---------|---------|---------|---------|---------|---------|---------|
E|---------|---------|---------|---------|---------|---------|---------|---------|---------|

E|---------|---------|---------|---------|---------|---------|---------|---------|---------|
B|---------|---------|---------|---------|---------|---------|---------|---------|---------|
G|-%-------|-%-------|-%-------|-%-------|-%-------|-%-------|-%-------|-%-------|-%-------|
D|-%-------|-%-------|-%-------|-%-------|-%-------|-%-------|-%-------|-%-------|-%-------|
A|---------|---------|---------|---------|---------|---------|---------|---------|---------|
E|---------|---------|---------|---------|---------|---------|---------|---------|---------|

E|---------|---------|---------|---------|---------|---------|---------|---------|---------|
B|---------|---------|---------|---------|---------|---------|---------|---------|---------|
G|-%-------|-%-------|-%-------|-%-------|-%-------|-%-------|-%-------|-%-------|-%-------|
D|-%-------|-%-------|-%-------|-%-------|-%-------|-%-------|-%-------|-%-------|-%-------|
A|---------|---------|---------|---------|---------|---------|---------|---------|---------|
E|---------|---------|---------|---------|---------|---------|---------|---------|---------|

E|---------|---------|---------|---------|---------|---------|---------|---------|---------|
B|---------|---------|---------|---------|---------|---------|---------|---------|---------|
G|-%-------|-%-------|-%-------|-%-------|-%-------|-%-------|-%-------|-%-------|-%-------|
D|-%-------|-%-------|-%-------|-%-------|-%-------|-%-------|-%-------|-%-------|-%-------|
A|---------|---------|---------|---------|---------|---------|---------|---------|---------|
E|---------|---------|---------|---------|---------|---------|---------|---------|---------|

E|---------|---------|---------|---------|---------|---------|---------|---------|---------|
B|---------|---------|---------|---------|---------|---------|---------|---------|---------|
G|-%-------|-%-------|-%-------|-%-------|-%-------|-%-------|-%-------|-%-------|-%-------|
D|-%-------|-%-------|-%-------|-%-------|-%-------|-%-------|-%-------|-%-------|-%-------|
A|---------|---------|---------|---------|---------|---------|---------|---------|---------|
E|---------|---------|---------|---------|---------|---------|---------|---------|---------|

E|---------|---------|---------|---------|---------|---------|---------|---------|---------|
B|---------|---------|---------|---------|---------|---------|---------|---------|---------|
G|-%-------|-%-------|-%-------|-%-------|-%-------|-%-------|-%-------|-%-------|-%-------|
D|-%-------|-%-------|-%-------|-%-------|-%-------|-%-------|-%-------|-%-------|-%-------|
A|---------|---------|---------|---------|---------|---------|---------|---------|---------|
E|---------|---------|---------|---------|---------|---------|---------|---------|---------|

E|---------|---------|---------|---------|---------|---------|---------|---------|---------|
B|---------|---------|---------|---------|---------|---------|---------|---------|---------|
G|-%-------|-%-------|-%-------|-%-------|-%-------|-%-------|-%-------|-%-------|-%-------|
D|-%-------|-%-------|-%-------|-%-------|-%-------|-%-------|-%-------|-%-------|-%-------|
A|---------|---------|---------|---------|---------|---------|---------|---------|---------|
E|---------|---------|---------|---------|---------|---------|---------|---------|---------|

E|---------|---------|---------|---------|---------|---------|---------|---------|---------|
B|---------|---------|---------|---------|---------|---------|---------|---------|---------|
G|-%-------|-%-------|-%-------|-%-------|-%-------|-%-------|-%-------|-%-------|-%-------|
D|-%-------|-%-------|-%-------|-%-------|-%-------|-%-------|-%-------|-%-------|-%-------|
A|---------|---------|---------|---------|---------|---------|---------|---------|---------|
E|---------|---------|---------|---------|---------|---------|---------|---------|---------|

E|---------|---------|---------|---------|---------|---------|---------|---------|---------|
B|---------|---------|---------|---------|---------|---------|---------|---------|---------|
G|-%-------|-%-------|-%-------|-%-------|-%-------|-%-------|-%-------|-%-------|-%-------|
D|-%-------|-%-------|-%-------|-%-------|-%-------|-%-------|-%-------|-%-------|-%-------|
A|---------|---------|---------|---------|---------|---------|---------|---------|---------|
E|---------|---------|---------|---------|---------|---------|---------|---------|---------|

E|---------|---------|---------|---------|---------|---------|---------|---------|---------|
B|---------|---------|---------|---------|---------|---------|---------|---------|---------|
G|-%-------|-%-------|-%-------|-%-------|-%-------|-%-------|-%-------|-%-------|-%-------|
D|-%-------|-%-------|-%-------|-%-------|-%-------|-%-------|-%-------|-%-------|-%-------|
A|---------|---------|---------|---------|---------|---------|---------|---------|---------|
E|---------|---------|---------|---------|---------|---------|---------|---------|---------|

E|---------|---------|---------|---------|---------|---------|---------|---------|---------|
B|---------|---------|---------|---------|---------|---------|---------|---------|---------|
G|-%-------|-%-------|-%-------|-%-------|-%-------|-%-------|-%-------|-%-------|-%-------|
D|-%-------|-%-------|-%-------|-%-------|-%-------|-%-------|-%-------|-%-------|-%-------|
A|---------|---------|---------|---------|---------|---------|---------|---------|---------|
E|---------|---------|---------|---------|---------|---------|---------|---------|---------|

E|---------|---------|---------|---------|---------|---------|-----------------------------------------------------------------|
B|---------|---------|---------|---------|---------|---------|-----------------------------------------------------------------|
G|-%-------|-%-------|-%-------|-%-------|-%-------|-%-------|---------9-------9-------9-------%-------12------12------12------|
D|-%-------|-%-------|-%-------|-%-------|-%-------|-%-------|-----9-------9-------9-------9---%---12------12------12------12--|
A|---------|---------|---------|---------|---------|---------|-7---------------------------------------------------------------|
E|---------|---------|---------|---------|---------|---------|-----------------------------------------------------------------|

E|-----------------------------------------------------------------|-----------------------------------------------------------------|
B|-----------------------------------------------------------------|-----------------------------------------------------------------|
G|---------7-------7-------7---------------4-------4-------4-------|---------5-------5-------5---------------7-------7-------7-------|
D|-----7-------7-------7-------7-------4-------4-------4-------4---|-----5-------5-------5-------5-------7-------7-------7-------7---|
A|-5-------------------------------2-------------------------------|-3-------------------------------5-------------------------------|
E|-----------------------------------------------------------------|-----------------------------------------------------------------|

E|----------------------------------------|---------|---------|---------|
B|----------------------------------------|---------|---------|---------|
G|---------9-------9-------9--------------|-%-------|-%-------|-%-------|
D|-----9-------9-------9-------9----------|-%-------|-%-------|-%-------|
A|-7-------------------------------7------|---------|---------|---------|
E|----------------------------------------|---------|---------|---------|
Iron Maiden - Fortunes Of War
Iron Maiden - Fortunes Of War.gp3