Iron Maiden - From Here To Eternity

Iron Maiden - From Here To Eternity

Iron Maiden



Title: From Here To Eternity
Album: Fear Of The Dark
Artist: Iron Maiden
Author: Iron Maiden

Track 1: Distortion Guitar
E|---------|---------|---------|---------|---------|---------|---------|---------|--------------------------------------------|
B|---------|---------|---------|---------|---------|---------|---------|---------|---------------------------------------12---|
G|-%-------|-%-------|-%-------|-%-------|-%-------|-%-------|-%-------|-%-------|-%------------10--------10--------10---12---|
D|-%-------|-%-------|-%-------|-%-------|-%-------|-%-------|-%-------|-%-------|-%----10--12-------12--------12-------------|
A|---------|---------|---------|---------|---------|---------|---------|---------|--------------------------------------------|
E|---------|---------|---------|---------|---------|---------|---------|---------|--------------------------------------------|

E|---------------------------------|--------------------------------------------|---------------------------------|
B|-12---12-------------------------|---------------------------------------12---|-12---12--------13---13-----13---|
G|-12---12---10--------------------|-%------------10--------10--------10---12---|-12---12---10--------------------|
D|----------------12---12-----12---|-%----10--12-------12--------12-------------|---------------------------------|
A|---------------------------------|--------------------------------------------|---------------------------------|
E|---------------------------------|--------------------------------------------|---------------------------------|

E|--------------------------------------------|---------------------------------|--------------------------------------------|
B|---------------------------------------12---|-12---12-------------------------|---------------------------------------18---|
G|-%------------10--------10--------10---12---|-12---12---10--------------------|-----------------------------17---19--------|
D|-%----10--12-------12--------12-------------|----------------12---12-----12---|-----------15---17--17--19------------------|
A|--------------------------------------------|---------------------------------|-15---17------------------------------------|
E|--------------------------------------------|---------------------------------|--------------------------------------------|

E|-------20---20---20---20-------------|---------------------------------|-------------------------------------|
B|-20-----------------------------9----|-9-------------------------------|-------------------------------------|
G|---------------------------%----9----|-9-----9-----9----9----9----7----|-7----7----7-----7----7----7----5----|
D|---------------------------%----7----|-7-----9-----9----9----9----7----|-7----7----7-----7----7----7----5----|
A|-------------------------------------|-------7-----7----7----7----5----|-5----5----5-----5----5----5----3----|
E|-------------------------------------|---------------------------------|-------------------------------------|

E|-------------------------------------|---------------------------------|---------------------------------|
B|-------------------------------------|---------------------------------|---------------------------------|
G|-5----5----5-----5----5----5----7----|-7-----7-----7----7----7----9----|-9-----9-----9----9----9----7----|
D|-5----5----5-----5----5----5----7----|-7-----7-----7----7----7----9----|-9-----9-----9----9----9----7----|
A|-3----3----3-----3----3----3----5----|-5-----5-----5----5----5----7----|-7-----7-----7----7----7----5----|
E|-------------------------------------|---------------------------------|---------------------------------|

E|-------------------------------------|---------------------------------|-------------------------------------|
B|-------------------------------------|---------------------------------|-------------------------------------|
G|-7----7----7-----7----7----7----5----|-5----5----5-----5----5----5-----|-7----7----7--------------------9----|
D|-7----7----7-----7----7----7----5----|-5----5----5-----5----5----5-----|-7----7----7--------------------9----|
A|-5----5----5-----5----5----5----3----|-3----3----3-----3----3----3-----|-5----5----5--------------------7----|
E|-------------------------------------|---------------------------------|-----------------5----3----0---------|

E|---------------------------------|-------------------------------------|-------------------------------------|
B|---------------------------------|-------------------------------------|-------------------------------------|
G|-9-----9-----9----9----9----7----|-7----7----7-----7----7----7----5----|-5----5----5-----5----5----5----7----|
D|-9-----9-----9----9----9----7----|-7----7----7-----7----7----7----5----|-5----5----5-----5----5----5----7----|
A|-7-----7-----7----7----7----5----|-5----5----5-----5----5----5----3----|-3----3----3-----3----3----3----5----|
E|---------------------------------|-------------------------------------|-------------------------------------|

E|---------------------------------|---------------------------------|-------------------------------------|
B|---------------------------------|---------------------------------|-------------------------------------|
G|-7-----7-----7----7----7----9----|-9-----9-----9----9----9----7----|-7----7----7-----7----7----7----5----|
D|-7-----7-----7----7----7----9----|-9-----9-----9----9----9----7----|-7----7----7-----7----7----7----5----|
A|-5-----5-----5----5----5----7----|-7-----7-----7----7----7----5----|-5----5----5-----5----5----5----3----|
E|---------------------------------|---------------------------------|-------------------------------------|

E|---------------------------------|-------------------------------------|-------------------------|
B|---------------------------------|-------------------------------------|-------0-----0------0----|
G|-5----5----5-----5----5----------|-7----7----7-------------------------|-------1-----1------2----|
D|-5----5----5-----5----5----------|-7----7----7-------------------------|-------2-----2------2----|
A|-3----3----3-----3----3-----0----|-5----5----5--------------------2----|-2-----2-----2-----------|
E|---------------------------------|-----------------5----3----0----0----|-0-----0-----0-----------|

E|-----------------------------------------|-----------------------------------------|
B|-0----0-----------------------------0----|-0--------------0----0--------------0----|
G|-2----1-----------------------------2----|-2----1---------2----2----1---------2----|
D|-2----2-----------------------------2----|-2---------2----2----2---------2----2----|
A|-----------------------------------------|-----------------------------------------|
E|-----------0----0----0----0----0---------|-----------------------------------------|

E|-------------------------------------|-------------------------|-----------------------------------------|
B|-0---------5----5----5---------------|-------0-----0------0----|-0----0-----------------------------0----|
G|-2----1----4----4----4---------------|-------1-----1------2----|-2----1-----------------------------2----|
D|-2----2----2----2----2---------------|-------2-----2------2----|-2----2-----------------------------2----|
A|--------------------------------2----|-2-----2-----2-----------|-----------------------------------------|
E|---------------------------0----0----|-0-----0-----0-----------|-----------0----0----0----0----0---------|

E|-----------------------------------------|-------------------------------------|---------------------------------|
B|-0--------------0----0--------------0----|-0---------5----5----5---------------|---------------------------------|
G|-2----1---------2----2----1---------2----|-2----1----4----4----4----------9----|-9-----9-----9----9----9----7----|
D|-2---------2----2----2---------2----2----|-2----2----2----2----2----------9----|-9-----9-----9----9----9----7----|
A|-----------------------------------------|--------------------------------7----|-7-----7-----7----7----7----5----|
E|-----------------------------------------|---------------------------0---------|---------------------------------|

E|-------------------------------------|-------------------------------------|---------------------------------|
B|-------------------------------------|-------------------------------------|---------------------------------|
G|-7----7----7-----7----7----7----5----|-5----5----5-----5----5----5----7----|-7-----7-----7----7----7----9----|
D|-7----7----7-----7----7----7----5----|-5----5----5-----5----5----5----7----|-7-----7-----7----7----7----9----|
A|-5----5----5-----5----5----5----3----|-3----3----3-----3----3----3----5----|-5-----5-----5----5----5----7----|
E|-------------------------------------|-------------------------------------|---------------------------------|

E|---------------------------------|-------------------------------------|---------------------------------|
B|---------------------------------|-------------------------------------|---------------------------------|
G|-9-----9-----9----9----9----7----|-7----7----7-----7----7----7----5----|-5----5----5-----5----5----5-----|
D|-9-----9-----9----9----9----7----|-7----7----7-----7----7----7----5----|-5----5----5-----5----5----5-----|
A|-7-----7-----7----7----7----5----|-5----5----5-----5----5----5----3----|-3----3----3-----3----3----3-----|
E|---------------------------------|-------------------------------------|---------------------------------|

E|-------------------------------------|---------------------------------|-------------------------------------|
B|-------------------------------------|---------------------------------|-------------------------------------|
G|-7----7----7--------------------9----|-9-----9-----9----9----9----7----|-7----7----7-----7----7----7----5----|
D|-7----7----7--------------------9----|-9-----9-----9----9----9----7----|-7----7----7-----7----7----7----5----|
A|-5----5----5--------------------7----|-7-----7-----7----7----7----5----|-5----5----5-----5----5----5----3----|
E|-----------------5----3----0---------|---------------------------------|-------------------------------------|

E|-------------------------------------|---------------------------------|---------------------------------|
B|-------------------------------------|---------------------------------|---------------------------------|
G|-5----5----5-----5----5----5----7----|-7-----7-----7----7----7----9----|-9-----9-----9----9----9----7----|
D|-5----5----5-----5----5----5----7----|-7-----7-----7----7----7----9----|-9-----9-----9----9----9----7----|
A|-3----3----3-----3----3----3----5----|-5-----5-----5----5----5----7----|-7-----7-----7----7----7----5----|
E|-------------------------------------|---------------------------------|---------------------------------|

E|-------------------------------------|---------------------------------|-------------------------------------|
B|-------------------------------------|---------------------------------|-------------------------------------|
G|-7----7----7-----7----7----7----5----|-5----5----5-----5----5----------|-7----7----7-------------------------|
D|-7----7----7-----7----7----7----5----|-5----5----5-----5----5----------|-7----7----7-------------------------|
A|-5----5----5-----5----5----5----3----|-3----3----3-----3----3-----0----|-5----5----5--------------------2----|
E|-------------------------------------|---------------------------------|-----------------5----3----0----0----|

E|-------------------------|-----------------------------------------|-----------------------------------------|
B|-------0-----0------0----|-0----0-----------------------------0----|-0--------------0----0--------------0----|
G|-------1-----1------2----|-2----1-----------------------------2----|-2----1---------2----2----1---------2----|
D|-------2-----2------2----|-2----2-----------------------------2----|-2---------2----2----2---------2----2----|
A|-2-----2-----2-----------|-----------------------------------------|-----------------------------------------|
E|-0-----0-----0-----------|-----------0----0----0----0----0---------|-----------------------------------------|

E|-------------------------------------|-------------------------|-----------------------------------------|
B|-0---------5----5----5---------------|-------0-----0------0----|-0----0-----------------------------0----|
G|-2----1----4----4----4---------------|-------1-----1------2----|-2----1-----------------------------2----|
D|-2----2----2----2----2---------------|-------2-----2------2----|-2----2-----------------------------2----|
A|--------------------------------2----|-2-----2-----2-----------|-----------------------------------------|
E|---------------------------0----0----|-0-----0-----0-----------|-----------0----0----0----0----0---------|

E|-----------------------------------------|---------------------------------|-------------------------|
B|-0--------------0----0--------------0----|-0---------5-----5-----5---------|-------0-----0------0----|
G|-2----1---------2----2----1---------2----|-2----1----4-----4-----4---------|-------1-----1------2----|
D|-2---------2----2----2---------2----2----|-2----2----2-----2-----2---------|-------2-----2------2----|
A|-----------------------------------------|----------------------------2----|-2-----2-----2-----------|
E|-----------------------------------------|----------------------------0----|-0-----0-----0-----------|

E|-----------------------------------------|-----------------------------------------|
B|-0----0-----------------------------0----|-0--------------0----0--------------0----|
G|-2----1-----------------------------2----|-2----1---------2----2----1---------2----|
D|-2----2-----------------------------2----|-2---------2----2----2---------2----2----|
A|-----------------------------------------|-----------------------------------------|
E|-----------0----0----0----0----0---------|-----------------------------------------|

E|-------------------------------------|-------------------------------------|-------------------------------------|
B|-0-----------------------------------|-------0------------------------0----|-0------------------------------0----|
G|-2----1------------------------------|-------1------------------------2----|-2----1-------------------------2----|
D|-2----2------------------------------|-------2------------------------2----|-2---------2--------------------2----|
A|--------------------------------2----|-2-----2-----------------------------|-------------------------------------|
E|-----------0----0----0----0-----0----|-0-----0----0----0----0----0---------|-----------------0----0----0---------|

E|-----------------------------------------|-----------------------------|------------------------|
B|-0--------------0----0--------------0----|-0----0----------------------|------------------------|
G|-2----1---------2----2----1---------2----|-2----1-----------------9----|-9-----9----%----%------|
D|-2---------2----2----2---------2----2----|-2----2----2-----2------9----|-9-----9----%----%------|
A|-----------------------------------------|-----------2-----2------7----|-7-----7----------------|
E|-----------------------------------------|-----------0-----0-----------|------------------------|

E|---------|-----------------------------------------|-----------------------------------------|
B|---------|-----------------------------------------|-----------------------------------------|
G|-%-------|-9----9----9----9----9----9----9----7----|-7----7----7----7----7----7----7----7----|
D|-%-------|-9----9----9----9----9----9----9----7----|-7----7----7----7----7----7----7----7----|
A|---------|-----------------------------------------|-----------------------------------------|
E|---------|-----------------------------------------|-----------------------------------------|

E|-----------------------------------------|-----------------------------------------|
B|-----------------------------------------|-----------------------------------------|
G|-6----6----6----6----7----6----7----9----|-9----9----9----9----9----7----7----9----|
D|-6----6----6----6----7----6----7----9----|-9----9----9----9----9----7----7----9----|
A|-----------------------------------------|-----------------------------------------|
E|-----------------------------------------|-----------------------------------------|

E|-----------------------------------------|-----------------------------------------|
B|-----------------------------------------|-----------------------------------------|
G|-9----9----9----9----9----9----9----7----|-7----7----7----7----7----7----7----7----|
D|-9----9----9----9----9----9----9----7----|-7----7----7----7----7----7----7----7----|
A|-----------------------------------------|-----------------------------------------|
E|-----------------------------------------|-----------------------------------------|

E|-----------------------------------------|-----------------------------------------|
B|-----------------------------------------|-----------------------------------------|
G|-5----5----5----5----7----5----7----9----|-9----9----9----9----9----7----7----9----|
D|-5----5----5----5----7----5----7----9----|-9----9----9----9----9----7----7----9----|
A|-----------------------------------------|-----------------------------------------|
E|-----------------------------------------|-----------------------------------------|

E|-----------------------------------------|-----------------------------------------|
B|-----------------------------------------|-----------------------------------------|
G|-9----9----9----9----9----9----9----7----|-7----7----7----7----7----7----7----7----|
D|-9----9----9----9----9----9----9----7----|-7----7----7----7----7----7----7----7----|
A|-----------------------------------------|-----------------------------------------|
E|-----------------------------------------|-----------------------------------------|

E|-----------------------------------------|-----------------------------------------|
B|-----------------------------------------|-----------------------------------------|
G|-6----6----6----6----7----6----7----9----|-9----9----9----9----9----7----7----9----|
D|-6----6----6----6----7----6----7----9----|-9----9----9----9----9----7----7----9----|
A|-----------------------------------------|-----------------------------------------|
E|-----------------------------------------|-----------------------------------------|

E|-----------------------------------------|-----------------------------------------|
B|-----------------------------------------|-----------------------------------------|
G|-9----9----9----9----9----9----9----7----|-7----7----7----7----7----7----7----7----|
D|-9----9----9----9----9----9----9----7----|-7----7----7----7----7----7----7----7----|
A|-----------------------------------------|-----------------------------------------|
E|-----------------------------------------|-----------------------------------------|

E|-----------------------------------------|-----------------------------------------|
B|-----------------------------------------|-----------------------------------------|
G|-5----5----5----5----7----5----7----9----|-9----9----9----9----9----7----7----9----|
D|-5----5----5----5----7----5----7----9----|-9----9----9----9----9----7----7----9----|
A|-----------------------------------------|-----------------------------------------|
E|-----------------------------------------|-----------------------------------------|

E|--------------------------------------------|---------------------------------|--------------------------------------------|
B|---------------------------------------14---|-14---14-------------------------|---------------------------------------14---|
G|-%------------12--------12---12---12---14---|-14---14---12--------------------|-%------------12--------12--------12---14---|
D|-%----12--14-------14-----------------------|----------------14---14-----14---|-%----12--14-------14--------14-------------|
A|--------------------------------------------|---------------------------------|--------------------------------------------|
E|--------------------------------------------|---------------------------------|--------------------------------------------|

E|---------------------------------|--------------------------------------------|---------------------------------|
B|-14---14--------15---15-----15---|---------------------------------------14---|-14---14-------------------------|
G|-14---14---12--------------------|-%------------12--------12--------12---14---|-14---14---12--------------------|
D|---------------------------------|-%----12--14-------14--------14-------------|----------------14---14-----14---|
A|---------------------------------|--------------------------------------------|---------------------------------|
E|---------------------------------|--------------------------------------------|---------------------------------|

E|---------------|----------------------|-15--18--15--18--19--15------19--15------15--19---------------|
B|---------------|----------------------|-------------------------17----------17---------------17--15--|
G|---------------|---------%----9---9---|-------------------------------------------------%------------|
D|---------------|---------%----9---9---|-------------------------------------------------%------------|
A|---------------|--------------7---7---|--------------------------------------------------------------|
E|-0------0------|-0--------------------|--------------------------------------------------------------|

E|---------------------------------------------------------------------|---------------------------------------------------------------------------------|
B|-18--17--15------15--17--19--17--15--19--17--15------15--17--19--17--|-15--17--19--17--15------15--17--19--17--15--17--19--17--15--17--15--19--17--15--|
G|-------------16----------------------------------16------------------|---------------------16----------------------------------------------------------|
D|---------------------------------------------------------------------|---------------------------------------------------------------------------------|
A|---------------------------------------------------------------------|---------------------------------------------------------------------------------|
E|---------------------------------------------------------------------|---------------------------------------------------------------------------------|

E|----------------------------------------------------------------------15--|-15---12--------12---17--17--15----------------|
B|-----15--17--19--17--15------15--15---------------------------------------|-----------15-----------------------------12---|
G|-16----------------------16----------16--15--15--12--14--12-------%-------|---------------------------------%--------12---|
D|-------------------------------------------------------------14---%-------|---------------------------------%---14--------|
A|--------------------------------------------------------------------------|-----------------------------------------------|
E|--------------------------------------------------------------------------|-----------------------------------------------|

E|-----------------------------------------------------------|------------------------------------------------------------------|
B|-----------12--15--12------12--15--12------12--15--12------|-----12--15--12------12--15----------15--17--15------15--17-------|
G|-%----14---------------14--------------14--------------14--|-14--------------14----------%---16--------------16----------%----|
D|-%---------------------------------------------------------|-----------------------------%-------------------------------%----|
A|-----------------------------------------------------------|------------------------------------------------------------------|
E|-----------------------------------------------------------|------------------------------------------------------------------|

E|-17----18----18--------------|-------------------------------------|--------------------------------13---|
B|------------------------13---|-13---10------------------------13---|-13---10-----------------------------|
G|-------------------%---------|-----------12---10-------------------|-----------12---10-------------------|
D|-------------------%---------|---------------------12---10---------|---------------------12---10---------|
A|-----------------------------|-------------------------------------|-------------------------------------|
E|-----------------------------|-------------------------------------|-------------------------------------|

E|-13---10---------------------------------|-------------------------------|-10--10--------------10--13--10-----------10---10-------10--|
B|-----------10----------------------------|--------------10---10--11--13--|---------11--10--11--------------11--10-------------10------|
G|----------------12---12---10-------------|-------------------------------|------------------------------------------------------------|
D|-------------------------------12---10---|-12-----12---------------------|------------------------------------------------------------|
A|-----------------------------------------|-------------------------------|------------------------------------------------------------|
E|-----------------------------------------|-------------------------------|------------------------------------------------------------|

E|-13--10-----------10--13--10--------------10--13----------15---|-15---15---13---12---13---12-------------|
B|---------11---10--------------11--10--11----------15-----------|-------------------------------13---15---|
G|------------------------------------------------------%--------|-----------------------------------------|
D|------------------------------------------------------%--------|-----------------------------------------|
A|---------------------------------------------------------------|-----------------------------------------|
E|---------------------------------------------------------------|-----------------------------------------|

E|-------------------|---------|---------|---------|-------------------------------------------|
B|-15----------------|---------|---------|---------|------15----15-----------------------------|
G|---------%---------|-%-------|-%-------|-%-------|-%---------------14--14--12----------------|
D|---------%---------|-%-------|-%-------|-%-------|-%----------------------------14--12--14---|
A|--------------2----|---------|---------|---------|-------------------------------------------|
E|--------------0----|---------|---------|---------|-------------------------------------------|

E|--------------------|---------|---------|------15-----15---12-------------|------------------------|
B|-------12-----------|---------|---------|-----------------------15---15---|-15-----15---15---------|
G|-------12----%------|-%-------|-%-------|-%-------------------------------|------------------%-----|
D|-14----------%------|-%-------|-%-------|-%-------------------------------|------------------%-----|
A|--------------------|---------|---------|---------------------------------|------------------------|
E|--------------------|---------|---------|---------------------------------|------------------------|

E|---------|---------|------15---12--15--12--------------------------------------|--------------------|
B|---------|---------|-----------------------15--12--15--12----------------------|-------12-----------|
G|-%-------|-%-------|-%-------------------------------------14--12--14--12------|-------12----%------|
D|-%-------|-%-------|-%-----------------------------------------------------14--|-14----------%------|
A|---------|---------|-----------------------------------------------------------|--------------------|
E|---------|---------|-----------------------------------------------------------|--------------------|

E|---------|---------|-----------12----------------------------|-----------------------------|
B|---------|---------|------15--------15--------12-------------|-------12---------------2----|
G|-%-------|-%-------|-%-------------------14--------12--------|-------12----%-----%----2----|
D|-%-------|-%-------|-%----------------------------------14---|-14----------%-----%----2----|
A|---------|---------|-----------------------------------------|-----------------------------|
E|---------|---------|-----------------------------------------|-----------------------------|

E|--------------------|-------------------------------------|--------------------|-14--15--14-12-14-12----12----------12----------12----------12------------------12----------|
B|-2-----5------------|-------------------------------------|-15-----15-----15---|---------------------15---------15----------15----------15------15--12--13--15------15--13--|
G|-2-----4------------|-2-----------------2-----------------|--------------------|----------------------------%-----------%-----------%---------------------------------------|
D|-2-----2------------|-2-----------------2-----------------|--------------------|----------------------------%-----------%-----------%---------------------------------------|
A|--------------------|-0-----------------0-----------------|--------------------|--------------------------------------------------------------------------------------------|
E|-------4------0-----|-------4-----0-----------4-----0-----|--------------------|--------------------------------------------------------------------------------------------|

E|--------------------------------------------------------------------------------------------|
B|-12--13-12-13-12----12----------------------------------------------------------------------|
G|-----------------14----14-12-14-12-%--12-11-12-11-----------%---9---11-12-11-9--12-11-9-----|
D|-----------------------------------%--------------14-16-14--%----------------------------12-|
A|--------------------------------------------------------------------------------------------|
E|--------------------------------------------------------------------------------------------|

E|----------------------------------------------------------------------------------|
B|----------------------------------------------------------------------------------|
G|-9-------------------12--11---12-11-----------------------------------------------|
D|-----12--10--12--14-----------------14--12--12--12--------------------12--14--12--|
A|----------------------------------------------------14--12--12--12-14-------------|
E|----------------------------------------------------------------------------------|

E|-----------------------------------------------------|--------------------------------|
B|-----------------------------------------------------|-------15-----------14----14----|
G|-----------------------------------------------------|------------14--14--14----14----|
D|-12--13--12------------------------------------------|--------------------------------|
A|-------------14--12---10---7---5---------------------|--------------------------------|
E|------------------------------------7---6---5---3----|-0------------------------------|
Iron Maiden - From Here To Eternity
Iron Maiden - From Here To Eternity.gp3