Iron Maiden - From Here To Eternity (2)

Iron Maiden



Title: From here to eternity
Album: Fear of the dark
Artist: Iron Maiden
Author: Steve Harris

Track 1: Janick (solo)
E|---------|---------|---------|---------|---------|---------|---------|---------|---------|
B|---------|---------|---------|---------|---------|---------|---------|---------|---------|
G|-%-------|-%-------|-%-------|-%-------|-%-------|-%-------|-%-------|-%-------|-%-------|
D|-%-------|-%-------|-%-------|-%-------|-%-------|-%-------|-%-------|-%-------|-%-------|
A|---------|---------|---------|---------|---------|---------|---------|---------|---------|
E|---------|---------|---------|---------|---------|---------|---------|---------|---------|

E|---------|---------|---------|---------|---------|---------|---------|---------|---------|
B|---------|---------|---------|---------|---------|---------|---------|---------|---------|
G|-%-------|-%-------|-%-------|-%-------|-%-------|-%-------|-%-------|-%-------|-%-------|
D|-%-------|-%-------|-%-------|-%-------|-%-------|-%-------|-%-------|-%-------|-%-------|
A|---------|---------|---------|---------|---------|---------|---------|---------|---------|
E|---------|---------|---------|---------|---------|---------|---------|---------|---------|

E|---------|---------|---------|---------|---------|---------|---------|---------|---------|
B|---------|---------|---------|---------|---------|---------|---------|---------|---------|
G|-%-------|-%-------|-%-------|-%-------|-%-------|-%-------|-%-------|-%-------|-%-------|
D|-%-------|-%-------|-%-------|-%-------|-%-------|-%-------|-%-------|-%-------|-%-------|
A|---------|---------|---------|---------|---------|---------|---------|---------|---------|
E|---------|---------|---------|---------|---------|---------|---------|---------|---------|

E|---------|---------|---------|---------|---------|---------|---------|---------|---------|
B|---------|---------|---------|---------|---------|---------|---------|---------|---------|
G|-%-------|-%-------|-%-------|-%-------|-%-------|-%-------|-%-------|-%-------|-%-------|
D|-%-------|-%-------|-%-------|-%-------|-%-------|-%-------|-%-------|-%-------|-%-------|
A|---------|---------|---------|---------|---------|---------|---------|---------|---------|
E|---------|---------|---------|---------|---------|---------|---------|---------|---------|

E|---------|---------|---------|---------|---------|---------|---------|---------|---------|
B|---------|---------|---------|---------|---------|---------|---------|---------|---------|
G|-%-------|-%-------|-%-------|-%-------|-%-------|-%-------|-%-------|-%-------|-%-------|
D|-%-------|-%-------|-%-------|-%-------|-%-------|-%-------|-%-------|-%-------|-%-------|
A|---------|---------|---------|---------|---------|---------|---------|---------|---------|
E|---------|---------|---------|---------|---------|---------|---------|---------|---------|

E|---------|---------|---------|---------|---------|---------|---------|---------|------------------------|
B|---------|---------|---------|---------|---------|---------|---------|---------|------------------------|
G|-%-------|-%-------|-%-------|-%-------|-%-------|-%-------|-%-------|-%-------|-%------%-----%---------|
D|-%-------|-%-------|-%-------|-%-------|-%-------|-%-------|-%-------|-%-------|-%------%-----%---------|
A|---------|---------|---------|---------|---------|---------|---------|---------|------------------------|
E|---------|---------|---------|---------|---------|---------|---------|---------|-------------------0----|

E|-------------------------|---------|---------|---------|---------|---------|---------------|
B|-------------------------|---------|---------|---------|---------|---------|---------------|
G|-------------------------|---------|-%-------|-%-------|-%-------|-%-------|-%-------%-----|
D|-------------------------|---------|-%-------|-%-------|-%-------|-%-------|-%-------%-----|
A|-------------------------|---------|---------|---------|---------|---------|---------------|
E|-0-----0-----0-----0-----|-0-------|---------|---------|---------|---------|---------------|

E|---------|---------|---------|---------|---------|------------------------|-------------------------------------|
B|---------|---------|---------|---------|---------|-------------------13---|-13---10------------------------13---|
G|-%-------|-%-------|-%-------|-%-------|-%-------|-%------%-----%---------|-----------12---10-------------------|
D|-%-------|-%-------|-%-------|-%-------|-%-------|-%------%-----%---------|---------------------12---10---------|
A|---------|---------|---------|---------|---------|------------------------|-------------------------------------|
E|---------|---------|---------|---------|---------|------------------------|-------------------------------------|

E|--------------------------------13---|-13---10---------------------------------|---------|
B|-13---10-----------------------------|-----------10----------------------------|---------|
G|-----------12---10-------------------|----------------12---12---10-------------|---------|
D|---------------------12---10---------|-------------------------------12---10---|-12------|
A|-------------------------------------|-----------------------------------------|---------|
E|-------------------------------------|-----------------------------------------|---------|

E|-15--10--------------10--15--10--------------10--15--10--------------10--15--10--------------10--|
B|---------13--10--13--------------13--10--13--------------13--10--13--------------13--10--13------|
G|-------------------------------------------------------------------------------------------------|
D|-------------------------------------------------------------------------------------------------|
A|-------------------------------------------------------------------------------------------------|
E|-------------------------------------------------------------------------------------------------|

E|-15--10--------------10--13--10----------15--15--10--13--10------10--13--13---|-13---13---13--12--10-----------------------|
B|---------13--10--13--------------13--10----------------------13---------------|------------------------13---10---13---13---|
G|------------------------------------------------------------------------------|--------------------------------------------|
D|------------------------------------------------------------------------------|--------------------------------------------|
A|------------------------------------------------------------------------------|--------------------------------------------|
E|------------------------------------------------------------------------------|--------------------------------------------|

E|--------------------|---------|---------|---------|---------|---------|---------|
B|-13-----------------|---------|---------|---------|---------|---------|---------|
G|--------12---12-----|-%-------|-%-------|-%-------|-%-------|-%-------|-%-------|
D|--------------------|-%-------|-%-------|-%-------|-%-------|-%-------|-%-------|
A|--------------------|---------|---------|---------|---------|---------|---------|
E|--------------------|---------|---------|---------|---------|---------|---------|

E|---------|---------|---------|---------|---------|---------|---------|---------|---------|
B|---------|---------|---------|---------|---------|---------|---------|---------|---------|
G|-%-------|-%-------|-%-------|-%-------|-%-------|-%-------|-%-------|-%-------|-%-------|
D|-%-------|-%-------|-%-------|-%-------|-%-------|-%-------|-%-------|-%-------|-%-------|
A|---------|---------|---------|---------|---------|---------|---------|---------|---------|
E|---------|---------|---------|---------|---------|---------|---------|---------|---------|

E|---------|---------|---------|---------|---------|---------|---------|---------|---------|
B|---------|---------|---------|---------|---------|---------|---------|---------|---------|
G|-%-------|-%-------|-%-------|-%-------|-%-------|-%-------|-%-------|-%-------|-%-------|
D|-%-------|-%-------|-%-------|-%-------|-%-------|-%-------|-%-------|-%-------|-%-------|
A|---------|---------|---------|---------|---------|---------|---------|---------|---------|
E|---------|---------|---------|---------|---------|---------|---------|---------|---------|

E|---------|---------|
B|---------|---------|
G|-%-------|-%-------|
D|-%-------|-%-------|
A|---------|---------|
E|---------|---------|
Iron Maiden - From Here To Eternity (2)
Iron Maiden - From Here To Eternity (2).gp4