Iron Maiden - Genghis Khan

Iron Maiden



Title: Genghis Khan
Album: Killers
Artist: Iron Maiden
Author: composed by Steve Harris

Track 1: Dave (Guitar)
E|-------------------------------------------------------------|-------------------------------------------------------------|
B|-------------------------------------------------------------|-------------------------------------------------------------|
G|-------------------------------------------------------------|-------------------------------------------------------------|
D|-0----0----0----7----7----7----5----5----5----4----4----4----|-2----2----2----0----0----0----------------------------------|
A|-------------------------------------------------------------|-------------------------------3----3----3----0----0----0----|
E|-------------------------------------------------------------|-------------------------------------------------------------|

E|-------------------------------------|-------------------------------|--------------------------------------------------|
B|-------------------------------------|-------------------------------|--------------------------------------------------|
G|-------------------------------------|-------------------------------|------7---7---7---7---7----9----7----5---7---5----|
D|-------------------------------------|-2-----2-----2-----5-----4-----|-0----0---0---0---0---5----7----5----3---5---3----|
A|-3-----3-----3-----5-----5-----5-----|-0-----0-----0-----3-----2-----|--------------------------------------------------|
E|-1-----1-----1-----3-----3-----3-----|-------------------------------|--------------------------------------------------|

E|-------------------------------------------|--------------------------------------------------|
B|-------------------------------------------|--------------------------------------------------|
G|------7---7---7---7---7----9----7----5-----|------7---7---7---7---7----9----7----5---7---5----|
D|-0----0---0---0---0---5----7----5----3-----|-0----0---0---0---0---5----7----5----3---5---3----|
A|-------------------------------------------|--------------------------------------------------|
E|-------------------------------------------|--------------------------------------------------|

E|-------------------------------------------|--------------------------------------------------|
B|-------------------------------------------|--------------------------------------------------|
G|------7---7---7---7---7----9----7----5-----|--------------------------------------------------|
D|-0----0---0---0---0---5----7----5----3-----|----------------------7----9----7----5---7---5----|
A|-------------------------------------------|-0----3---3---3---3---5----7----5----3---5---3----|
E|-------------------------------------------|--------------------------------------------------|

E|-------------------------------------------|--------------------------------------------------|
B|-------------------------------------------|--------------------------------------------------|
G|-------------------------------------------|--------------------------------------------------|
D|----------------------7----9----7----5-----|----------------------7----9----7----5---7---5----|
A|-0----3---3---3---3---5----7----5----5-----|-0----3---3---3---3---5----7----5----3---5---3----|
E|-------------------------------------3-----|--------------------------------------------------|

E|-------------------------------------------|-----------------------------------------------------|
B|-------------------------------------------|-----------------------------------------------------|
G|-------------------------------------------|------7---7---7---7---9---------10--10--10--9---7----|
D|----------------------7----9----7----5-----|-0----5---5---5---5---7----0----8---8---8---7---5----|
A|-0----3---3---3---3---5----7----5----5-----|-----------------------------------------------------|
E|-------------------------------------3-----|-----------------------------------------------------|

E|-----------------------------------------------|---------------------------|-----------------------------------------------------|
B|-----------------------------------------------|---------------------------|-----------------------------------------------------|
G|------10--10--10--10--9----7----5----4---------|------10--10--10--10--9----|-----------------------------------------------------|
D|-0----8---8---8---8---7----5----3----2---------|-0----8---8---8---8---7----|-0-----0----3----2----0----0-----0----3----2----0----|
A|------------------------------------------3----|---------------------------|-----------------------------------------------------|
E|-----------------------------------------------|---------------------------|-----------------------------------------------------|

E|---------------------------------------------------------|-----------------------------------------------------|
B|---------------------------------------------------------|-----------------------------------------------------|
G|---------------------------------------------------------|-----------------------------------------------------|
D|----------------------0----2----2----2----2----0---------|-0-----0----3----2----0----0-----0----3----2----0----|
A|-0-----0----2----3----------------------------------3----|-----------------------------------------------------|
E|---------------------------------------------------------|-----------------------------------------------------|

E|---------------------------------------------------------|-----------------------------------------------------|
B|---------------------------------------------------------|-----------------------------------------------------|
G|---------------------------------------------------------|---------------------------0-----0--------------0----|
D|----------------------0----2----2----2----2----0---------|-0-----0----3----2----0---------------2----3---------|
A|-0-----0----2----3----------------------------------3----|-----------------------------------------------------|
E|---------------------------------------------------------|-----------------------------------------------------|

E|-----------------------------------------------------|-----------------------------------------------------|
B|-----------------------------------------------------|-----------------------------------------------------|
G|-2-----2-------------------0-----0-------------------|---------------------------0-----0--------------0----|
D|------------3----2----0---------------3----2----0----|-0-----0----3----2----0---------------2----3---------|
A|-----------------------------------------------------|-----------------------------------------------------|
E|-----------------------------------------------------|-----------------------------------------------------|

E|-----------------------------------------------------|-----------------------------------------------------|
B|-----------------------------------------------------|-----------------------------------------------------|
G|-2-----2-------------------0-----0-------------------|-----------------------------------------------------|
D|------------3----2----0---------------3----2----0----|-----------------------------------------------------|
A|-----------------------------------------------------|-0-----0----3----2----0----7----5----0----3-----0----|
E|-----------------------------------------------------|-----------------------------------------------------|

E|-----------------------------------------------------|-----------------------------------------------------|
B|-----------------------------------------------------|-----------------------------------------------------|
G|-----------------------------------------------------|-----------------------------------------------------|
D|-----------------------------------------------------|-0-----0----3----2----0----7----5----0----3-----0----|
A|-0-----0----3----2---------0-----0----3----2---------|-----------------------------------------------------|
E|----------------------3-------------------------3----|-----------------------------------------------------|

E|-----------------------------------------------------|-----------------------------------------------------|
B|-----------------------------------------------------|-----------------------------------------------------|
G|-----------------------------------------------------|-----------------------------------------------------|
D|-0-----3----2----0---------0-----0----3----2---------|-----------------------------------------------------|
A|----------------------3-------------------------3----|-0-----0----3----2----0----7----5----0----3-----0----|
E|-----------------------------------------------------|-----------------------------------------------------|

E|-----------------------------------------------------|-----------------------------------------------------|
B|-----------------------------------------------------|-----------------------------------------------------|
G|-----------------------------------------------------|-0-----0----3----2----0-------------------------0----|
D|-----------------------------------------------------|---------------------------0-----0----2----3---------|
A|-0-----0----3----2---------0-----0----3----2---------|-----------------------------------------------------|
E|----------------------3-------------------------3----|-----------------------------------------------------|

E|-----------------------------------------------------|---------------------------------------------------------|
B|-----------------------------------------------------|---------------------------------------------------------|
G|-----------------------------------------------------|---------------------------------------------------------|
D|-0-----0----3----2----0----0-----0----3----2----0----|----------------------0----2----2----2----2----0---------|
A|-----------------------------------------------------|-0-----0----2----3----------------------------------3----|
E|-----------------------------------------------------|---------------------------------------------------------|

E|-----------------------------------------------------|-----------------------------------------------------|
B|-----------------------------------------------------|-----------------------------------------------------|
G|---------------------------0-----0--------------0----|-2-----2-------------------0-----0-------------------|
D|-0-----0----3----2----0---------------2----3---------|------------3----2----0---------------3----2----0----|
A|-----------------------------------------------------|-----------------------------------------------------|
E|-----------------------------------------------------|-----------------------------------------------------|

E|-----------------------------------------------------|-----------------------------------------------------|
B|-----------------------------------------------------|-----------------------------------------------------|
G|-----------------------------------------------------|-----------------------------------------------------|
D|-9----9---9---9----9---9---9----9---9---9----9---9---|-5----5---5---5----5---5---5----5---5---5----5---5---|
A|-7----7---7---7----7---7---7----7---7---7----7---7---|-3----3---3---3----3---3---3----3---3---3----3---3---|
E|-----------------------------------------------------|-----------------------------------------------------|

E|----------------------------------------------|-----------------------------------------------------|
B|----------------------------------------------|-----------------------------------------------------|
G|----------------------------------------------|-----------------------------------------------------|
D|-2----2---2---2----2---2---2----2---2---4-----|-5----5---5---5----5---5---5----5---5---5----5---5---|
A|-0----0---0---0----0---0---0----0---0---2-----|-3----3---3---3----3---3---3----3---3---3----3---3---|
E|----------------------------------------------|-----------------------------------------------------|

E|-----------------------------------------------------|-----------------------------------------------------|
B|-----------------------------------------------------|-----------------------------------------------------|
G|-----------------------------------------------------|-----------------------------------------------------|
D|-9----9---9---9----9---9---9----9---9---9----9---9---|-9----9---9---9----9---9---9----9---9---9----9---9---|
A|-7----7---7---7----7---7---7----7---7---7----7---7---|-7----7---7---7----7---7---7----7---7---7----7---7---|
E|-----------------------------------------------------|-----------------------------------------------------|

E|-----------------------------------------------------|-----------------------------------------------------|
B|-----------------------------------------------------|-----------------------------------------------------|
G|-----------------------------------------------------|-----------------------------------------------------|
D|-9----9---9---9----9---9---9----9---9---9----9---9---|-5----5---5---5----5---5---5----5---5---5----5---5---|
A|-7----7---7---7----7---7---7----7---7---7----7---7---|-3----3---3---3----3---3---3----3---3---3----3---3---|
E|-----------------------------------------------------|-----------------------------------------------------|

E|----------------------------------------------|-----------------------------------------------------|
B|----------------------------------------------|-----------------------------------------------------|
G|----------------------------------------------|-----------------------------------------------------|
D|-2----2---2---2----2---2---2----2---2---4-----|-5----5---5---5----5---5---5----5---5---5----5---5---|
A|-0----0---0---0----0---0---0----0---0---2-----|-3----3---3---3----3---3---3----3---3---3----3---3---|
E|----------------------------------------------|-----------------------------------------------------|

E|-----------------------------------------------------|-----------------------------------------------------|
B|-----------------------------------------------------|-----------------------------------------------------|
G|-----------------------------------------------------|-----------------------------------------------------|
D|-9----9---9---9----9---9---9----9---9---9----9---9---|-9----9---9---9----9---9---9----9---9---9----9---9---|
A|-7----7---7---7----7---7---7----7---7---7----7---7---|-7----7---7---7----7---7---7----7---7---7----7---7---|
E|-----------------------------------------------------|-----------------------------------------------------|

E|---------|---------|---------|-------------------|---------|---------|
B|---------|---------|---------|-------------------|---------|---------|
G|-9-------|-7-------|-5-------|-4-------5----7----|-9-------|-9-------|
D|-9-------|-7-------|-5-------|-4-------5----7----|-9-------|-9-------|
A|-7-------|-5-------|-3-------|-2-------3----5----|-7-------|-7-------|
E|---------|---------|---------|-------------------|---------|---------|
Iron Maiden - Genghis Khan
Iron Maiden - Genghis Khan.gp3