Iron Maiden - Ghost Of Navigator

Iron Maiden



Title: Ghost Of Navigator
Album: Brave new world
Artist: IRON MAIDEN
Author: Janick Gers / Bruce Dickinson / Steve Harris

Track 1: Guitare 1
E|-------5-----------------------------|---------|-------5-----------------------------|
B|------------8----8----6----5----6----|---------|------------8----8----6----5----6----|
G|-7-----------------------------------|-5-------|-7-----------------------------------|
D|-------------------------------------|---------|-------------------------------------|
A|-------------------------------------|---------|-------------------------------------|
E|-------------------------------------|---------|-------------------------------------|

E|---------|-----------------------------------------|-----------------------------------------|
B|-5-------|-------8---8----6----6----5--------------|-------8---8----6----6----5--------------|
G|---------|-------------------------------7----5----|-------------------------------7----5----|
D|---------|-8---------------------------------------|-8---------------------------------------|
A|---------|-----------------------------------------|-----------------------------------------|
E|---------|-----------------------------------------|-----------------------------------------|

E|-------5-----------------------------|---------|-----------------------------------------|
B|------------8----8----6----5----6----|---------|-------8---8----6----6----5--------------|
G|-7-----------------------------------|-5-------|-7-----------------------------7----5----|
D|-------------------------------------|---------|-----------------------------------------|
A|-------------------------------------|---------|-----------------------------------------|
E|-------------------------------------|---------|-----------------------------------------|

E|-----------------------------------------|-----------------------------------------|
B|-------8---8----6----6----5--------------|-------8---8----6----6----5--------------|
G|-------------------------------7----5----|-------------------------------7----5----|
D|-8---------------------------------------|-5---------------------------------------|
A|-----------------------------------------|-----------------------------------------|
E|-----------------------------------------|-----------------------------------------|

E|-----------------------------------------|---------|---------|---------|--------6----6----8------|
B|-------5---5----6----6----8----6----5----|-3-------|-3-------|-5-------|-8------6----6----8------|
G|-7---------------------------------------|-2-------|-3-------|-5-------|-7------7----7----9------|
D|-----------------------------------------|-0-------|-0-------|-0-------|-0-----------------------|
A|-----------------------------------------|---------|---------|---------|-------------------------|
E|-----------------------------------------|---------|---------|---------|-------------------------|

E|-------------------------------------------------------|-------------------------------------------------------|
B|-3-----------------------------------------------------|-3-----------------------------------------------------|
G|-2-----------------------------------------------------|-3-----------------------------------------------------|
D|-0-----0---0---0---0---0---0---0---0---0---0---0---0---|-0-----0---0---0---0---0---0---0---0---0---0---0---0---|
A|-------------------------------------------------------|-------------------------------------------------------|
E|-------------------------------------------------------|-------------------------------------------------------|

E|-------------------------------------------------------|-------------------------|
B|-5-----------------------------------------------------|-5------3----3----5------|
G|-5-----------------------------------------------------|-5------2----2----5------|
D|-0-----0---0---0---0---0---0---0---0---0---0---0---0---|-0------0----0----0------|
A|-------------------------------------------------------|-------------------------|
E|-------------------------------------------------------|-------------------------|

E|-------------------------------------------------------|-------------------------------------------------------|
B|-3-----------------------------------------------------|-3-----------------------------------------------------|
G|-2-----------------------------------------------------|-3-----------------------------------------------------|
D|-0-----0---0---0---0---0---0---0---0---0---0---0---0---|-0-----0---0---0---0---0---0---0---0---0---0---0---0---|
A|-------------------------------------------------------|-------------------------------------------------------|
E|-------------------------------------------------------|-------------------------------------------------------|

E|-------------------------------------------------------|-------------------------|
B|-5-----------------------------------------------------|-5------3----3----5------|
G|-5-----------------------------------------------------|-5------2----2----5------|
D|-0-----0---0---0---0---0---0---0---0---0---0---0---0---|-0------0----0----0------|
A|-------------------------------------------------------|-------------------------|
E|-------------------------------------------------------|-------------------------|

E|-------------------------------------------------------|-------------------------------------------------------|
B|-3-----------------------------------------------------|-3-----------------------------------------------------|
G|-2-----------------------------------------------------|-3-----------------------------------------------------|
D|-0-----0---0---0---0---0---0---0---0---0---0---0---0---|-0-----0---0---0---0---0---0---0---0---0---0---0---0---|
A|-------------------------------------------------------|-------------------------------------------------------|
E|-------------------------------------------------------|-------------------------------------------------------|

E|-------------------------------------------------------|-------------------------|
B|-5-----------------------------------------------------|-5------3----3----5------|
G|-5-----------------------------------------------------|-5------2----2----5------|
D|-0-----0---0---0---0---0---0---0---0---0---0---0---0---|-0------0----0----0------|
A|-------------------------------------------------------|-------------------------|
E|-------------------------------------------------------|-------------------------|

E|-------------------------------------------------------|-------------------------------------------------------|
B|-3-----------------------------------------------------|-3-----------------------------------------------------|
G|-2-----------------------------------------------------|-3-----------------------------------------------------|
D|-0-----0---0---0---0---0---0---0---0---0---0---0---0---|-0-----0---0---0---0---0---0---0---0---0---0---0---0---|
A|-------------------------------------------------------|-------------------------------------------------------|
E|-------------------------------------------------------|-------------------------------------------------------|

E|-------------------------------------------------------|-------------------------|
B|-5-----------------------------------------------------|-5------3----3----5------|
G|-5-----------------------------------------------------|-5------2----2----5------|
D|-0-----0---0---0---0---0---0---0---0---0---0---0---0---|-0------0----0----0------|
A|-------------------------------------------------------|-------------------------|
E|-------------------------------------------------------|-------------------------|

E|-------------------------------------------------------|-------------------------------------------------------|
B|-3-----------------------------------------------------|-3-----------------------------------------------------|
G|-2-----------------------------------------------------|-3-----------------------------------------------------|
D|-0-----0---0---0---0---0---0---0---0---0---0---0---0---|-0-----0---0---0---0---0---0---0---0---0---0---0---0---|
A|-------------------------------------------------------|-------------------------------------------------------|
E|-------------------------------------------------------|-------------------------------------------------------|

E|-------------------------------------------------------|-------------------------|
B|-5-----------------------------------------------------|-5------3----3----5------|
G|-5-----------------------------------------------------|-5------2----2----5------|
D|-0-----0---0---0---0---0---0---0---0---0---0---0---0---|-0------0----0----0------|
A|-------------------------------------------------------|-------------------------|
E|-------------------------------------------------------|-------------------------|

E|-----------------------------------------|-----------------------------------------|
B|-----------------------------------------|-----------------------------------------|
G|-----------------------------------------|-5----5----5----5----5----5----5----5----|
D|-7----7----7----7----7----7----7----7----|-5----5----5----5----5----5----5----5----|
A|-7----7----7----7----7----7----7----7----|-3----3----3----3----3----3----3----3----|
E|-5----5----5----5----5----5----5----5----|-----------------------------------------|

E|-----------------------------------------|-----------------------------------------|
B|-----------------------------------------|-----------------------------------------|
G|-4----4----4----4----4----4----4----4----|-7----7----7----5----5----5----4----4----|
D|-4----4----4----4----4----4----4----4----|-7----7----7----5----5----5----4----4----|
A|-2----2----2----2----2----2----2----2----|-5----5----5----3----3----3----2----2----|
E|-----------------------------------------|-----------------------------------------|

E|-----------------------------------------|-----------------------------------------|
B|-----------------------------------------|-----------------------------------------|
G|-----------------------------------------|-5----5----5----5----5----5----5----5----|
D|-7----7----7----7----7----7----7----7----|-5----5----5----5----5----5----5----5----|
A|-7----7----7----7----7----7----7----7----|-3----3----3----3----3----3----3----3----|
E|-5----5----5----5----5----5----5----5----|-----------------------------------------|

E|-----------------------------------------|-----------------------------------------|
B|-----------------------------------------|-----------------------------------------|
G|-4----4----4----4----4----4----4----4----|-7----7----7----5----5----5----4----4----|
D|-4----4----4----4----4----4----4----4----|-7----7----7----5----5----5----4----4----|
A|-2----2----2----2----2----2----2----2----|-5----5----5----3----3----3----2----2----|
E|-----------------------------------------|-----------------------------------------|

E|-----------------------------------------|-----------------------------------------|
B|-----------------------------------------|-----------------------------------------|
G|-----------------------------------------|-5----5----5----5----5----5----5----5----|
D|-7----7----7----7----7----7----7----7----|-5----5----5----5----5----5----5----5----|
A|-7----7----7----7----7----7----7----7----|-3----3----3----3----3----3----3----3----|
E|-5----5----5----5----5----5----5----5----|-----------------------------------------|

E|-----------------------------------------|-----------------------------------------|
B|-----------------------------------------|-----------------------------------------|
G|-4----4----4----4----4----4----4----4----|-7----7----7----5----5----5----4----4----|
D|-4----4----4----4----4----4----4----4----|-7----7----7----5----5----5----4----4----|
A|-2----2----2----2----2----2----2----2----|-5----5----5----3----3----3----2----2----|
E|-----------------------------------------|-----------------------------------------|

E|-----------------------------------------|-----------------------------------------|
B|-----------------------------------------|-----------------------------------------|
G|-----------------------------------------|-5----5----5----5----5----5----5----5----|
D|-7----7----7----7----7----7----7----7----|-5----5----5----5----5----5----5----5----|
A|-7----7----7----7----7----7----7----7----|-3----3----3----3----3----3----3----3----|
E|-5----5----5----5----5----5----5----5----|-----------------------------------------|

E|-----------------------------------------|-----------------------------------------|
B|-----------------------------------------|-----------------------------------------|
G|-4----4----4----4----4----4----4----4----|-7----7----7----5----5----5----4----4----|
D|-4----4----4----4----4----4----4----4----|-7----7----7----5----5----5----4----4----|
A|-2----2----2----2----2----2----2----2----|-5----5----5----3----3----3----2----2----|
E|-----------------------------------------|-----------------------------------------|

E|---------------|---------------|---------------|---------------|---------------|---------------|
B|---------------|---------------|---------------|---------------|---------------|---------------|
G|-9------9------|-12-----12-----|-5------5------|---------------|-9------9------|-12-----12-----|
D|-9------9------|-12-----12-----|-5------5------|-7------7------|-9------9------|-12-----12-----|
A|-7------7------|-10-----10-----|-3------3------|-7------7------|-7------7------|-10-----10-----|
E|-0------0------|---------------|---------------|-5------5------|-0------0------|---------------|

E|---------------|---------------|---------------|---------------|---------------|---------------|
B|---------------|---------------|---------------|---------------|---------------|---------------|
G|-5------5------|---------------|-9------9------|-12-----12-----|-5------5------|---------------|
D|-5------5------|-7------9------|-9------9------|-12-----12-----|-5------5------|-7------7------|
A|-3------3------|-7------9------|-7------7------|-10-----10-----|-3------3------|-7------7------|
E|---------------|-5------7------|-0------0------|---------------|---------------|-5------5------|

E|---------------|---------------|---------|---------------|-------------------------|
B|---------------|---------------|---------|---------------|-3------3----3-----3-----|
G|-9------9------|-12-----12-----|-5-------|---------------|-2------2----2-----2-----|
D|-9------9------|-12-----12-----|-5-------|-7------9------|-0------0----0-----0-----|
A|-7------7------|-10-----10-----|-3-------|-7------9------|-------------------------|
E|-0------0------|---------------|---------|-5------7------|-------------------------|

E|--------------------|-------------------------|--------------------|-------------------------|
B|-3-----3-----3------|-------------------------|--------------------|-3------3----3-----3-----|
G|-2-----2-----2------|-5------5----5-----5-----|-5-----5-----5------|-2------2----2-----2-----|
D|-0-----0-----0------|-5------5----5-----5-----|-5-----5-----5------|-0------0----0-----0-----|
A|--------------------|-3------3----3-----3-----|-3-----3-----3------|-------------------------|
E|--------------------|-------------------------|--------------------|-------------------------|

E|--------------------|-------------------------|--------------------|-------------------------|
B|-3-----3-----3------|-------------------------|--------------------|-------------------------|
G|-2-----2-----2------|-5------5----5-----5-----|-5-----5-----5------|-3------3----3-----3-----|
D|-0-----0-----0------|-5------5----5-----5-----|-5-----5-----5------|-3------3----3-----3-----|
A|--------------------|-3------3----3-----3-----|-3-----3-----3------|-1------1----1-----1-----|
E|--------------------|-------------------------|--------------------|-------------------------|

E|--------------------|-------------------------|--------------------|-------------------------|
B|--------------------|-------------------------|--------------------|-3------3----3-----3-----|
G|-3-----3-----3------|-3------3----3-----3-----|-3-----3-----3------|-2------2----2-----2-----|
D|-3-----3-----3------|-3------3----3-----3-----|-3-----3-----3------|-0------0----0-----0-----|
A|-1-----1-----1------|-1------1----1-----1-----|-1-----1-----1------|-------------------------|
E|--------------------|-------------------------|--------------------|-------------------------|

E|--------------------|-------------------------|--------------------|-------------------------|
B|-3-----3-----3------|-------------------------|--------------------|-3------3----3-----3-----|
G|-2-----2-----2------|-5------5----5-----5-----|-5-----5-----5------|-2------2----2-----2-----|
D|-0-----0-----0------|-5------5----5-----5-----|-5-----5-----5------|-0------0----0-----0-----|
A|--------------------|-3------3----3-----3-----|-3-----3-----3------|-------------------------|
E|--------------------|-------------------------|--------------------|-------------------------|

E|--------------------|-------------------------|--------------------|-------------------------|
B|-3-----3-----3------|-------------------------|--------------------|-3------3----3-----3-----|
G|-2-----2-----2------|-5------5----5-----5-----|-5-----5-----5------|-2------2----2-----2-----|
D|-0-----0-----0------|-5------5----5-----5-----|-5-----5-----5------|-0------0----0-----0-----|
A|--------------------|-3------3----3-----3-----|-3-----3-----3------|-------------------------|
E|--------------------|-------------------------|--------------------|-------------------------|

E|--------------------|-------------------------|--------------------|-------------------------|
B|-3-----3-----3------|-------------------------|--------------------|-------------------------|
G|-2-----2-----2------|-5------5----5-----5-----|-5-----5-----5------|-3------3----3-----3-----|
D|-0-----0-----0------|-5------5----5-----5-----|-5-----5-----5------|-3------3----3-----3-----|
A|--------------------|-3------3----3-----3-----|-3-----3-----3------|-1------1----1-----1-----|
E|--------------------|-------------------------|--------------------|-------------------------|

E|--------------------|-------------------------|--------------------|-------------------------|
B|--------------------|-------------------------|--------------------|-3------3----3-----3-----|
G|-3-----3-----3------|-3------3----3-----3-----|-3-----3-----3------|-2------2----2-----2-----|
D|-3-----3-----3------|-3------3----3-----3-----|-3-----3-----3------|-0------0----0-----0-----|
A|-1-----1-----1------|-1------1----1-----1-----|-1-----1-----1------|-------------------------|
E|--------------------|-------------------------|--------------------|-------------------------|

E|--------------------|-------------------------|--------------------|-------------------------------------------------------|
B|-3-----3-----3------|-------------------------|--------------------|-3-----------------------------------------------------|
G|-2-----2-----2------|-5------5----5-----5-----|-5-----5-----5------|-2-----------------------------------------------------|
D|-0-----0-----0------|-5------5----5-----5-----|-5-----5-----5------|-0-----0---0---0---0---0---0---0---0---0---0---0---0---|
A|--------------------|-3------3----3-----3-----|-3-----3-----3------|-------------------------------------------------------|
E|--------------------|-------------------------|--------------------|-------------------------------------------------------|

E|-------------------------------------------------------|-------------------------------------------------------|
B|-3-----------------------------------------------------|-5-----------------------------------------------------|
G|-3-----------------------------------------------------|-5-----------------------------------------------------|
D|-0-----0---0---0---0---0---0---0---0---0---0---0---0---|-0-----0---0---0---0---0---0---0---0---0---0---0---0---|
A|-------------------------------------------------------|-------------------------------------------------------|
E|-------------------------------------------------------|-------------------------------------------------------|

E|-------------------------|-----------------------------------------|-----------------------------------------|
B|-5------3----3----5------|-----------------------------------------|-----------------------------------------|
G|-5------2----2----5------|-----------5----5----4-------------------|-----------5----5----4-------------------|
D|-0------0----0----0------|--------------------------5--------------|--------------------------5--------------|
A|-------------------------|-7----7------------------------5----7----|-7----7------------------------5----7----|
E|-------------------------|-----------------------------------------|-----------------------------------------|

E|-----------------------------------------|-------------------------|-----------------------------------------|
B|-----------------------------------------|-------------------------|-----------------------------------------|
G|-----------5----5----4--------------5----|-5------7----7-----------|-----------5----5----4-------------------|
D|--------------------------5---------5----|-5------7----7-----------|--------------------------5--------------|
A|-7----7------------------------5----3----|-3------5----5------7----|-7----7------------------------5----7----|
E|-----------------------------------------|-------------------------|-----------------------------------------|

E|-----------------------------------------|-----------------------------------------|
B|-----------------------------------------|-----------------------------------------|
G|-----------5----5----4-------------------|-----------5----5----4--------------5----|
D|--------------------------5--------------|--------------------------5---------5----|
A|-7----7------------------------5----7----|-7----7------------------------5----3----|
E|-----------------------------------------|-----------------------------------------|

E|-------------------------|-----------------------------------------|-----------------------------------------|
B|-------------------------|-----------------------------------------|-----------------------------------------|
G|-5------7----7-----------|-----------3----3----2-------------------|-----------3----3----2-------------------|
D|-5------7----7-----------|--------------------------3--------------|--------------------------3--------------|
A|-3------5----5------5----|-5----5------------------------3----5----|-5----5------------------------3----5----|
E|-------------------------|-----------------------------------------|-----------------------------------------|

E|-----------------------------------------|-------------------------|-----------------------------------------|
B|-----------------------------------------|-------------------------|-----------------------------------------|
G|-----------3----3----2--------------3----|-3------5----5-----------|-----------3----3----2-------------------|
D|--------------------------3---------3----|-3------5----5-----------|--------------------------3--------------|
A|-5----5------------------------3----1----|-1------3----3------5----|-5----5------------------------3----5----|
E|-----------------------------------------|-------------------------|-----------------------------------------|

E|-----------------------------------------|-----------------------------------------|
B|-----------------------------------------|-----------------------------------------|
G|-----------3----3----2-------------------|-----------3----3----2--------------3----|
D|--------------------------3--------------|--------------------------3---------3----|
A|-5----5------------------------3----5----|-5----5------------------------3----1----|
E|-----------------------------------------|-----------------------------------------|

E|-------------------------|-----------------------------------------|-----------------------------------------|
B|-------------------------|-----------------------------------------|-----------------------------------------|
G|-3------5----5-----------|-----------7----7----6-------------------|-----------7----7----6-------------------|
D|-3------5----5-----------|--------------------------7--------------|--------------------------7--------------|
A|-1------3----3------9----|-9----9------------------------7----9----|-9----9------------------------7----9----|
E|-------------------------|-----------------------------------------|-----------------------------------------|

E|-----------------------------------------|-------------------------|-----------------------------------------|
B|-----------------------------------------|-------------------------|-----------------------------------------|
G|-----------7----7----6--------------7----|-7------9----9-----------|-----------7----7----6-------------------|
D|--------------------------7---------7----|-7------9----9-----------|--------------------------7--------------|
A|-9----9------------------------7----5----|-5------7----7------9----|-9----9------------------------7----9----|
E|-----------------------------------------|-------------------------|-----------------------------------------|

E|-----------------------------------------|-----------------------------------------|
B|-----------------------------------------|-----------------------------------------|
G|-----------7----7----6-------------------|-----------7----7----6--------------7----|
D|--------------------------7--------------|--------------------------7---------7----|
A|-9----9------------------------7----9----|-9----9------------------------7----5----|
E|-----------------------------------------|-----------------------------------------|

E|-------------------------|-----------------------------------------|-----------------------------------------|
B|-------------------------|-----------------------------------------|-----------------------------------------|
G|-7------9----9-----------|-----------5----5----4-------------------|-----------5----5----4-------------------|
D|-7------9----9-----------|--------------------------5--------------|--------------------------5--------------|
A|-5------7----7------7----|-7----7------------------------5----7----|-7----7------------------------5----7----|
E|-------------------------|-----------------------------------------|-----------------------------------------|

E|-----------------------------------------|-------------------------|-----------------------------------------|
B|-----------------------------------------|-------------------------|-----------------------------------------|
G|-----------5----5----4--------------5----|-5------7----7-----------|-----------5----5----4-------------------|
D|--------------------------5---------5----|-5------7----7-----------|--------------------------5--------------|
A|-7----7------------------------5----3----|-3------5----5------7----|-7----7------------------------5----7----|
E|-----------------------------------------|-------------------------|-----------------------------------------|

E|-----------------------------------------|-----------------------------------------|
B|-----------------------------------------|-----------------------------------------|
G|-----------5----5----4-------------------|-----------5----5----4--------------5----|
D|--------------------------5--------------|--------------------------5---------5----|
A|-7----7------------------------5----7----|-7----7------------------------5----3----|
E|-----------------------------------------|-----------------------------------------|

E|---------------|---------------|---------------|---------------|---------------|---------------|
B|---------------|---------------|---------------|---------------|---------------|---------------|
G|-5------7------|-9------9------|-12-----12-----|-5------5------|---------------|-9------9------|
D|-5------7------|-9------9------|-12-----12-----|-5------5------|-7------7------|-9------9------|
A|-3------5------|-7------7------|-10-----10-----|-3------3------|-7------7------|-7------7------|
E|---------------|-0------0------|---------------|---------------|-5------5------|-0------0------|

E|---------------|---------------|---------------|---------------|---------------|---------------|
B|---------------|---------------|---------------|---------------|---------------|---------------|
G|-12-----12-----|-5------5------|---------------|-9------9------|-12-----12-----|-5------5------|
D|-12-----12-----|-5------5------|-7------9------|-9------9------|-12-----12-----|-5------5------|
A|-10-----10-----|-3------3------|-7------9------|-7------7------|-10-----10-----|-3------3------|
E|---------------|---------------|-5------7------|-0------0------|---------------|---------------|

E|---------------|---------------|---------------|---------|---------------|-------------------------|
B|---------------|---------------|---------------|---------|---------------|-3------3----3-----3-----|
G|---------------|-9------9------|-12-----12-----|-5-------|---------------|-2------2----2-----2-----|
D|-7------7------|-9------9------|-12-----12-----|-5-------|-7------9------|-0------0----0-----0-----|
A|-7------7------|-7------7------|-10-----10-----|-3-------|-7------9------|-------------------------|
E|-5------5------|-0------0------|---------------|---------|-5------7------|-------------------------|

E|--------------------|-------------------------|--------------------|-------------------------|
B|-3-----3-----3------|-------------------------|--------------------|-3------3----3-----3-----|
G|-2-----2-----2------|-5------5----5-----5-----|-5-----5-----5------|-2------2----2-----2-----|
D|-0-----0-----0------|-5------5----5-----5-----|-5-----5-----5------|-0------0----0-----0-----|
A|--------------------|-3------3----3-----3-----|-3-----3-----3------|-------------------------|
E|--------------------|-------------------------|--------------------|-------------------------|

E|--------------------|-------------------------|--------------------|-------------------------|
B|-3-----3-----3------|-------------------------|--------------------|-------------------------|
G|-2-----2-----2------|-5------5----5-----5-----|-5-----5-----5------|-3------3----3-----3-----|
D|-0-----0-----0------|-5------5----5-----5-----|-5-----5-----5------|-3------3----3-----3-----|
A|--------------------|-3------3----3-----3-----|-3-----3-----3------|-1------1----1-----1-----|
E|--------------------|-------------------------|--------------------|-------------------------|

E|--------------------|-------------------------|--------------------|-------------------------|
B|--------------------|-------------------------|--------------------|-3------3----3-----3-----|
G|-3-----3-----3------|-3------3----3-----3-----|-3-----3-----3------|-2------2----2-----2-----|
D|-3-----3-----3------|-3------3----3-----3-----|-3-----3-----3------|-0------0----0-----0-----|
A|-1-----1-----1------|-1------1----1-----1-----|-1-----1-----1------|-------------------------|
E|--------------------|-------------------------|--------------------|-------------------------|

E|--------------------|-------------------------|--------------------|-------------------------|
B|-3-----3-----3------|-------------------------|--------------------|-3------3----3-----3-----|
G|-2-----2-----2------|-5------5----5-----5-----|-5-----5-----5------|-2------2----2-----2-----|
D|-0-----0-----0------|-5------5----5-----5-----|-5-----5-----5------|-0------0----0-----0-----|
A|--------------------|-3------3----3-----3-----|-3-----3-----3------|-------------------------|
E|--------------------|-------------------------|--------------------|-------------------------|

E|--------------------|-------------------------|--------------------|-------------------------|
B|-3-----3-----3------|-------------------------|--------------------|-3------3----3-----3-----|
G|-2-----2-----2------|-5------5----5-----5-----|-5-----5-----5------|-2------2----2-----2-----|
D|-0-----0-----0------|-5------5----5-----5-----|-5-----5-----5------|-0------0----0-----0-----|
A|--------------------|-3------3----3-----3-----|-3-----3-----3------|-------------------------|
E|--------------------|-------------------------|--------------------|-------------------------|

E|--------------------|-------------------------|--------------------|-------------------------|
B|-3-----3-----3------|-------------------------|--------------------|-------------------------|
G|-2-----2-----2------|-5------5----5-----5-----|-5-----5-----5------|-3------3----3-----3-----|
D|-0-----0-----0------|-5------5----5-----5-----|-5-----5-----5------|-3------3----3-----3-----|
A|--------------------|-3------3----3-----3-----|-3-----3-----3------|-1------1----1-----1-----|
E|--------------------|-------------------------|--------------------|-------------------------|

E|--------------------|-------------------------|--------------------|-------------------------|
B|--------------------|-------------------------|--------------------|-3------3----3-----3-----|
G|-3-----3-----3------|-3------3----3-----3-----|-3-----3-----3------|-2------2----2-----2-----|
D|-3-----3-----3------|-3------3----3-----3-----|-3-----3-----3------|-0------0----0-----0-----|
A|-1-----1-----1------|-1------1----1-----1-----|-1-----1-----1------|-------------------------|
E|--------------------|-------------------------|--------------------|-------------------------|

E|--------------------|-------------------------|--------------------|-------------------------|
B|-3-----3-----3------|-------------------------|--------------------|-3------3----3-----3-----|
G|-2-----2-----2------|-5------5----5-----5-----|-5-----5-----5------|-2------2----2-----2-----|
D|-0-----0-----0------|-5------5----5-----5-----|-5-----5-----5------|-0------0----0-----0-----|
A|--------------------|-3------3----3-----3-----|-3-----3-----3------|-------------------------|
E|--------------------|-------------------------|--------------------|-------------------------|

E|--------------------|---------|
B|-3-----3-----3------|-3-------|
G|-2-----2-----2------|-2-------|
D|-0-----0-----0------|-0-------|
A|--------------------|---------|
E|--------------------|---------|
Iron Maiden - Ghost Of Navigator
Iron Maiden - Ghost Of Navigator.gp3