Iron Maiden - Hallowed Be Thy Name (2)

Iron Maiden



Title: Hallowed be Thy Name
Album: The Number of the Beast
Artist: Iron Maiden
Author: Steve Harris

Track 1: Bass
G|------14------12------9-------9---10--9-------8-------9----|------14------12------9-------9---10--9-------8-------7----|
D|------14------12------9-------9---10--9-------8-------9----|------14------12------9-------9---10--9-------8-------7----|
A|-----------------------------------------------------------|-----------------------------------------------------------|
E|-0----0--0----0--0----0--0----0---0---0--0----0---0---0----|-0----0--0----0--0----0--0----0---0---0--0----0---0---0----|

G|------14------12------9-------9---10--9-------8-------9----|------14------12------9-------9---10--9-------8-------7----|
D|------14------12------9-------9---10--9-------8-------9----|------14------12------9-------9---10--9-------8-------7----|
A|-----------------------------------------------------------|-----------------------------------------------------------|
E|-0----0--0----0--0----0--0----0---0---0--0----0---0---0----|-0----0--0----0--0----0--0----0---0---0--0----0---0---0----|

G|------14------12------9-------9---10--9-------8-------9----|------14------12------9-------9---10--9-------8-------7----|
D|------14------12------9-------9---10--9-------8-------9----|------14------12------9-------9---10--9-------8-------7----|
A|-----------------------------------------------------------|-----------------------------------------------------------|
E|-0----0--0----0--0----0--0----0---0---0--0----0---0---0----|-0----0--0----0--0----0--0----0---0---0--0----0---0---0----|

G|------14------12------9-------9---10--9-------8-------9----|------14------12------9-------9---10--9-------8-------7----|
D|------14------12------9-------9---10--9-------8-------9----|------14------12------9-------9---10--9-------8-------7----|
A|-----------------------------------------------------------|-----------------------------------------------------------|
E|-0----0--0----0--0----0--0----0---0---0--0----0---0---0----|-0----0--0----0--0----0--0----0---0---0--0----0---0---0----|

G|------14------12------9-------9---10--9-------8-------9----|------14------12------9-------9---10--9-------8-------7----|
D|------14------12------9-------9---10--9-------8-------9----|------14------12------9-------9---10--9-------8-------7----|
A|-----------------------------------------------------------|-----------------------------------------------------------|
E|-0----0--0----0--0----0--0----0---0---0--0----0---0---0----|-0----0--0----0--0----0--0----0---0---0--0----0---0---0----|

G|------14------12------9-------9---10--9-------8-------9----|------14------12------9-------9---10--9-------8-------7----|
D|------14------12------9-------9---10--9-------8-------9----|------14------12------9-------9---10--9-------8-------7----|
A|-----------------------------------------------------------|-----------------------------------------------------------|
E|-0----0--0----0--0----0--0----0---0---0--0----0---0---0----|-0----0--0----0--0----0--0----0---0---0--0----0---0---0----|

G|---------|-------------------|------14------12------9-------9---10--9-------8-------9----|
D|---------|-------------------|------14------12------9-------9---10--9-------8-------9----|
A|-3-------|-5-------5---7-----|-----------------------------------------------------------|
E|---------|-------------------|-0----0--0----0--0----0--0----0---0---0--0----0---0---0----|

G|------14------12------9-------9---10--9-------8-------7----|---------|-------------------|
D|------14------12------9-------9---10--9-------8-------7----|---------|-------------------|
A|-----------------------------------------------------------|-3-------|-5-------5---7-----|
E|-0----0--0----0--0----0--0----0---0---0--0----0---0---0----|---------|-------------------|

G|------14------12------9-------9---10--9-------8-------9----|------14------12------9-------9---10--9-------8-------7----|
D|------14------12------9-------9---10--9-------8-------9----|------14------12------9-------9---10--9-------8-------7----|
A|-----------------------------------------------------------|-----------------------------------------------------------|
E|-0----0--0----0--0----0--0----0---0---0--0----0---0---0----|-0----0--0----0--0----0--0----0---0---0--0----0---0---0----|

G|--------------------------------------------------|--------------------------------------------------|
D|--------------------------------------------------|--------------------------------------------------|
A|-7----7---7---7----7---7---7----7---7---7----7----|--------------------------------------------------|
E|--------------------------------------------------|-8----8---8---8----8---8---8----8---8---8----8----|

G|--------------------------------------------------|--------------------------------------------------------|
D|--------------------------------------------------|--------------------------------------------------------|
A|--------------------------------------------------|-7----7---7---7----7---7---10--9---7----10--9---7-------|
E|-10---10--10--10---10--10--10---10--10--10---10---|----------------------------------------------------10--|

G|--------------------------------------------------|--------------------------------------------------|
D|--------------------------------------------------|--------------------------------------------------|
A|-7----7---7---7----7---7---7----7---7---7----7----|--------------------------------------------------|
E|--------------------------------------------------|-8----8---8---8----8---8---8----8---8---8----8----|

G|--------------------------------------------------|--------------------------------------------------------|
D|--------------------------------------------------|--------------------------------------------------------|
A|--------------------------------------------------|-7----7---7---7----7---7---10--9---7----10--9---7-------|
E|-10---10--10--10---10--10--10---10--10--10---10---|----------------------------------------------------10--|

G|-----------------------------------------------------|-----------------------------------------------------|
D|-----------------------------------------------------|-----------------------------------------------------|
A|-7----7---7---7----7---7---7----7---7---7----7---7---|-----------------------------------------------------|
E|-----------------------------------------------------|-8----8---8---8----8---8---8----8---8---8----8---8---|

G|-----------------------------------------------------|-----------------------------------------------------|
D|-----------------------------------------------------|-----------------------------------------------------|
A|-----------------------------------------------------|-7----7---7---7----7---7---7----7---7---7----7---7---|
E|-10---10--10--10---10--10--10---10--10--10---10--10--|-----------------------------------------------------|

G|-----------------------------------------------------|-----------------------------------------------------|
D|-----------------------------------------------------|-----------------------------------------------------|
A|-7----7---7---7----7---7---7----7---7---7----7---7---|-----------------------------------------------------|
E|-----------------------------------------------------|-8----8---8---8----8---8---8----8---8---8----8---8---|

G|-----------------------------------------------------|-----------------------------------------------------|
D|-----------------------------------------------------|-----------------------------------------------------|
A|-----------------------------------------------------|-7----7---7---7----7---7---7----7---7---7----7---7---|
E|-10---10--10--10---10--10--10---10--10--10---10--10--|-----------------------------------------------------|

G|-------------------------|-------------------------|-------------------------|-----------------------------------------------|
D|-------%------%----------|-------%------%----------|-------%------%----------|-----------------------------------------------|
A|-7-----%------%----------|-3-----%------%----------|-5-----%------%----------|-7-----------------------------10--9---7-------|
E|--------------------3----|--------------------5----|--------------------7----|-------7-----8-----7---8---7---------------10--|

G|-------------------------|-------------------------|-------------------------|-----------------------------------------------|
D|-------%------%----------|-------%------%----------|-------%------%----------|-----------------------------------------------|
A|-7-----%------%----------|-3-----%------%----------|-5-----%------%----------|-7-----------------------------10--9---7-------|
E|--------------------3----|--------------------5----|--------------------7----|-------7-----8-----7---8---7---------------10--|

G|-----------------------------------------------------|-----------------------------------------------------|
D|-----------------------------------------------------|-----------------------------------------------------|
A|-7----7---7---7----7---7---7----7---7---7----7---7---|-----------------------------------------------------|
E|-----------------------------------------------------|-8----8---8---8----8---8---8----8---8---8----8---8---|

G|-----------------------------------------------------|-----------------------------------------------|
D|-----------------------------------------------------|-----------------------------------------------|
A|-----------------------------------------------------|-7-----------------------------10--9---7-------|
E|-10---10--10--10---10--10--10---10--10--10---10--10--|-------7-----8-----7---8---7---------------10--|

G|-----------------------------------------------------|-----------------------------------------------------|
D|-----------------------------------------------------|-----------------------------------------------------|
A|-7----7---7---7----7---7---7----7---7---7----7---7---|-----------------------------------------------------|
E|-----------------------------------------------------|-8----8---8---8----8---8---8----8---8---8----8---8---|

G|-----------------------------------------------------|-----------------------------------------------|
D|-----------------------------------------------------|-----------------------------------------------|
A|-----------------------------------------------------|-7-----------------------------10--9---7-------|
E|-10---10--10--10---10--10--10---10--10--10---10--10--|-------7-----8-----7---8---7---------------10--|

G|-----------------------------------------------------|-----------------------------------------------------|
D|-----------------------------------------------------|-----------------------------------------------------|
A|-7----7---7---7----7---7---7----7---7---7----7---7---|-----------------------------------------------------|
E|-----------------------------------------------------|-8----8---8---8----8---8---8----8---8---8----8---8---|

G|-----------------------------------------------------|-----------------------------------------------------|
D|-----------------------------------------------------|-----------------------------------------------------|
A|-----------------------------------------------------|-7----7---7---7----7---7---7----7---7---7----7---7---|
E|-10---10--10--10---10--10--10---10--10--10---10--10--|-----------------------------------------------------|

G|-----------------------------------------------------|-----------------------------------------------------|
D|-----------------------------------------------------|-----------------------------------------------------|
A|-7----7---7---7----7---7---7----7---7---7----7---7---|-----------------------------------------------------|
E|-----------------------------------------------------|-8----8---8---8----8---8---8----8---8---8----8---8---|

G|-----------------------------------------------------|-----------------------------------------------------|
D|-----------------------------------------------------|-----------------------------------------------------|
A|-----------------------------------------------------|-7----7---7---7----7---7---7----7---7---7----7---7---|
E|-10---10--10--10---10--10--10---10--10--10---10--10--|-----------------------------------------------------|

G|---------------------------------------------|-----------------------------------------------------|
D|-----------------------9-----9---9-----------|--------------9-------------------------9------------|
A|-7-----7---7---9---10----------------10--9---|-7----9---10-------10--9---7----9---10------10--9----|
E|---------------------------------------------|-----------------------------------------------------|

G|---------------------------------------------|-----------------------------------------------------|
D|-----------------------9-----9---9-----------|--------------9-------------------------9------------|
A|---------------9---10----------------10--9---|------9---10-------10--9--------9---10------10--9----|
E|-8-----8---8---------------------------------|-8-------------------------8-------------------------|

G|---------------------------------------------|-----------------------------------------------------|
D|-----------------------9-----9---9-----------|--------------9-------------------------9------------|
A|-7-----7---7---9---10----------------10--9---|-7----9---10-------10--9---7----9---10------10--9----|
E|---------------------------------------------|-----------------------------------------------------|

G|---------------------------------------------|-----------------------------------------------------|
D|-----------------------9-----9---9-----------|--------------9-------------------------9------------|
A|---------------9---10----------------10--9---|------9---10-------10--9--------9---10------10--9----|
E|-8-----8---8---------------------------------|-8-------------------------8-------------------------|

G|-----------------------------------------------------|-----------------------------------------------------|
D|-----------------------------------------------------|-----------------------------------------------------|
A|-7----7---7---7----7---7---7----7---7---7----7---7---|-7----7---7---7----7---7---7----7---7---7----7---7---|
E|-----------------------------------------------------|-----------------------------------------------------|

G|-----------------------------------------------------|-----------------------------------------------------|
D|-----------------------------------------------------|-----------------------------------------------------|
A|-----------------------------------------------------|-----------------------------------------------------|
E|-8----8---8---8----8---8---8----8---8---8----8---8---|-8----8---8---8----8---8---8----8---8---8----8---8---|

G|-----------------------------------------------------|-----------------------------------------------------|
D|-----------------------------------------------------|-----------------------------------------------------|
A|-7----7---7---7----7---7---7----7---7---7----7---7---|-7----7---7---7----7---7---7----7---7---7----7---7---|
E|-----------------------------------------------------|-----------------------------------------------------|

G|-----------------------------------------------------|-----------------------------------------------------|
D|-----------------------------------------------------|-----------------------------------------------------|
A|-----------------------------------------------------|-----------------------------------------------------|
E|-8----8---8---8----8---8---8----8---8---8----8---8---|-8----8---8---8----8---8---8----8---8---8----8---8---|

G|-----------------------------------------------------|-----------------------------------------------------|
D|-----------------------------------------------------|-----------------------------------------------------|
A|-7----7---7---7----7---7---7----7---7---7----7---7---|-----------------------------------------------------|
E|-----------------------------------------------------|-8----8---8---8----8---8---8----8---8---8----8---8---|

G|-----------------------------------------------------|--------------------------------------------------------|
D|-----------------------------------------------------|--------------------------------------------------------|
A|-----------------------------------------------------|-7----7---7---7----7---7---10--9---7----10--9---7-------|
E|-10---10--10--10---10--10--10---10--10--10---10--10--|----------------------------------------------------10--|

G|-----------------------------------------------------|-----------------------------------------------------|
D|-----------------------------------------------------|-----------------------------------------------------|
A|-7----7---7---7----7---7---7----7---7---7----7---7---|-----------------------------------------------------|
E|-----------------------------------------------------|-8----8---8---8----8---8---8----8---8---8----8---8---|

G|-----------------------------------------------------|--------------------------------------------------------|
D|-----------------------------------------------------|--------------------------------------------------------|
A|-----------------------------------------------------|-7----7---7---7----7---7---10--9---7----10--9---7-------|
E|-10---10--10--10---10--10--10---10--10--10---10--10--|----------------------------------------------------10--|

G|-----------------------------------------------------|-----------------------------------------------------|
D|-----------------------------------------------------|-----------------------------------------------------|
A|-7----7---7---7----7---7---7----7---7---7----7---7---|-----------------------------------------------------|
E|-----------------------------------------------------|-8----8---8---8----8---8---8----8---8---8----8---8---|

G|-----------------------------------------------------|--------------------------------------------------------|
D|-----------------------------------------------------|--------------------------------------------------------|
A|-----------------------------------------------------|-7----7---7---7----7---7---10--9---7----10--9---7-------|
E|-10---10--10--10---10--10--10---10--10--10---10--10--|----------------------------------------------------10--|

G|-----------------------------------------------------|-----------------------------------------------------|
D|-----------------------------------------------------|-----------------------------------------------------|
A|-7----7---7---7----7---7---7----7---7---7----7---7---|-----------------------------------------------------|
E|-----------------------------------------------------|-8----8---8---8----8---8---8----8---8---8----8---8---|

G|-----------------------------------------------------|--------------------------------------------------------|
D|-----------------------------------------------------|--------------------------------------------------------|
A|-----------------------------------------------------|-7----7---7---7----7---7---10--9---7----10--9---7-------|
E|-10---10--10--10---10--10--10---10--10--10---10--10--|----------------------------------------------------10--|

G|-----------------------------------------------------|--------------------------------------------------|
D|-----------------------------------------------------|--------------------------------------------------|
A|-7----7---7---7----7---7---7----7---7---7----7---7---|-7----7---7---7----7---7---7----7---7---7---------|
E|-----------------------------------------------------|--------------------------------------------10----|

G|-----------------------------------------------------|--------------------------------------------------|
D|-----------------------------------------------------|--------------------------------------------------|
A|-----------------------------------------------------|--------------------------------------------------|
E|-8----8---8---8----8---8---8----8---8---8----8---8---|-8----8---8---8----8---8---8----8---8---8---10----|

G|-----------------------------------------------------|--------------------------------------------------|
D|-----------------------------------------------------|--------------------------------------------------|
A|-7----7---7---7----7---7---7----7---7---7----7---7---|-7----7---7---7----7---7---7----7---7---7---------|
E|-----------------------------------------------------|--------------------------------------------10----|

G|-----------------------------------------------------|--------------------------------------------------|
D|-----------------------------------------------------|--------------------------------------------------|
A|-----------------------------------------------------|--------------------------------------------------|
E|-8----8---8---8----8---8---8----8---8---8----8---8---|-8----8---8---8----8---8---8----8---8---8---10----|

G|---------|-------------------|---------|-------------------|---------|-------------------|
D|---------|-------------------|---------|-------------------|---------|-------------------|
A|-7-------|-7-------7---------|-7-------|-7-------7---------|-3-------|-3-------3---------|
E|---------|--------------7----|---------|--------------3----|---------|--------------7----|

G|---------|-------------------|-----------------------------------------------------------|
D|---------|---------------%---|---------------------9-------------------------------------|
A|-7-------|-7-------7-----%---|-7---9---10--9---10------10--9---10--9---7-----------------|
E|---------|-------------------|---------------------------------------------10--8----10---|

G|-----------------------------------------------------------|-----------------------------------------------------------|
D|---------------------9-------------------------------------|---------------------9-------------------------------------|
A|-7---9---10--9---10------10--9---10--9---7-----------------|-7---9---10--9---10------10--9---10--9---7-----------------|
E|---------------------------------------------10--8----10---|---------------------------------------------10--8----10---|

G|-----------------------------------------------------------|-----------------------------------------|
D|---------------------9-------------------------------------|-----------------------------------------|
A|-7---9---10--9---10------10--9---10--9---7-----------------|-7----7----7----7----7----7----7----7----|
E|---------------------------------------------10--8----10---|-----------------------------------------|

G|-----------------------------------------|-----------------------------------------|
D|-----------------------------------------|-----------------------------------------|
A|-7----7----7----7----7----7----7----7----|-7----7----7----7----7----7----7----7----|
E|-----------------------------------------|-----------------------------------------|

G|---------------------------------------------|-----------------------------------------|
D|-5----4-------------%---------------------%--|-----------------------------------------|
A|-----------5-----5--%--3----2-------------%--|-5----5----5----5----5----5----5----5----|
E|---------------------------------3-----3-----|-----------------------------------------|

G|-----------------------------------------|-----------------------------------------|
D|-----------------------------------------|-----------------------------------------|
A|-5----5----5----5----5----5----5----5----|-5----5----5----5----5----5----5----5----|
E|-----------------------------------------|-----------------------------------------|

G|---------------------------------------------|-----------------------------------------|
D|-5----4-------------%---------------------%--|-----------------------------------------|
A|-----------5-----5--%--3----2-------------%--|-7----7----7----7----7----7----7----7----|
E|---------------------------------3-----3-----|-----------------------------------------|

G|-----------------------------------------|-----------------------------------------|
D|-----------------------------------------|-----------------------------------------|
A|-7----7----7----7----7----7----7----7----|-7----7----7----7----7----7----7----7----|
E|-----------------------------------------|-----------------------------------------|

G|---------------------------------------------|-----------------------------------------|
D|-5----4-------------%---------------------%--|-----------------------------------------|
A|-----------5-----5--%--3----2-------------%--|-5----5----5----5----5----5----5----5----|
E|---------------------------------3-----3-----|-----------------------------------------|

G|-----------------------------------------|-----------------------------------------|
D|-----------------------------------------|-----------------------------------------|
A|-5----5----5----5----5----5----5----5----|-5----5----5----5----5----5----5----5----|
E|-----------------------------------------|-----------------------------------------|

G|---------------------------------------------|-----------------------------------------|
D|-5----4-------------%---------------------%--|-----------------------------------------|
A|-----------5-----5--%--3----2-------------%--|-7----7----7----7----7----7----7----7----|
E|---------------------------------3-----3-----|-----------------------------------------|

G|-----------------------------------------|-----------------------------------------|
D|-----------------------------------------|-----------------------------------------|
A|-7----7----7----7----7----7----7----7----|-7----7----7----7----7----7----7----7----|
E|-----------------------------------------|-----------------------------------------|

G|---------------------------------------------|-----------------------------------------|
D|-5----4-------------%---------------------%--|-----------------------------------------|
A|-----------5-----5--%--3----2-------------%--|-5----5----5----5----5----5----5----5----|
E|---------------------------------3-----3-----|-----------------------------------------|

G|-----------------------------------------|-----------------------------------------|
D|-----------------------------------------|-----------------------------------------|
A|-5----5----5----5----5----5----5----5----|-5----5----5----5----5----5----5----5----|
E|-----------------------------------------|-----------------------------------------|

G|---------------------------------------------|-----------------------------------------|
D|-5----4-------------%---------------------%--|-----------------------------------------|
A|-----------5-----5--%--3----2-------------%--|-7----7----7----7----7----7----7----7----|
E|---------------------------------3-----3-----|-----------------------------------------|

G|-----------------------------------------|-----------------------------------------|
D|-----------------------------------------|-----------------------------------------|
A|-7----7----7----7----7----7----7----7----|-7----7----7----7----7----7----7----7----|
E|-----------------------------------------|-----------------------------------------|

G|---------------------------------------------|-----------------------------------------|
D|-5----4-------------%---------------------%--|-----------------------------------------|
A|-----------5-----5--%--3----2-------------%--|-5----5----5----5----5----5----5----5----|
E|---------------------------------3-----3-----|-----------------------------------------|

G|-----------------------------------------|-----------------------------------------|
D|-----------------------------------------|-----------------------------------------|
A|-5----5----5----5----5----5----5----5----|-5----5----5----5----5----5----5----5----|
E|-----------------------------------------|-----------------------------------------|

G|---------------------------------------------|-----------------------------------------|
D|-5----4-------------%---------------------%--|-----------------------------------------|
A|-----------5-----5--%--3----2-------------%--|-7----7----7----7----7----7----7----7----|
E|---------------------------------3-----3-----|-----------------------------------------|

G|-----------------------------------------|-----------------------------------------|
D|-----------------------------------------|-----------------------------------------|
A|-7----7----7----7----7----7----7----7----|-7----7----7----7----7----7----7----7----|
E|-----------------------------------------|-----------------------------------------|

G|---------------------------------------------|-----------------------------------------|
D|-5----4-------------%---------------------%--|-----------------------------------------|
A|-----------5-----5--%--3----2-------------%--|-5----5----5----5----5----5----5----5----|
E|---------------------------------3-----3-----|-----------------------------------------|

G|-----------------------------------------|-----------------------------------------|
D|-----------------------------------------|-----------------------------------------|
A|-5----5----5----5----5----5----5----5----|-5----5----5----5----5----5----5----5----|
E|-----------------------------------------|-----------------------------------------|

G|---------------------------------------------|-----------------------------------------|
D|-5----4-------------%---------------------%--|-----------------------------------------|
A|-----------5-----5--%--3----2-------------%--|-7----7----7----7----7----7----7----7----|
E|---------------------------------3-----3-----|-----------------------------------------|

G|-----------------------------------------|-----------------------------------------|
D|-----------------------------------------|-----------------------------------------|
A|-7----7----7----7----7----7----7----7----|-7----7----7----7----7----7----7----7----|
E|-----------------------------------------|-----------------------------------------|

G|---------------------------------------------|-----------------------------------------|
D|-5----4-------------%---------------------%--|-----------------------------------------|
A|-----------5-----5--%--3----2-------------%--|-5----5----5----5----5----5----5----5----|
E|---------------------------------3-----3-----|-----------------------------------------|

G|-----------------------------------------|-----------------------------------------|
D|-----------------------------------------|-----------------------------------------|
A|-5----5----5----5----5----5----5----5----|-5----5----5----5----5----5----5----5----|
E|-----------------------------------------|-----------------------------------------|

G|---------------------------------------------|-----------------------------------------|
D|-5----4-------------%---------------------%--|-----------------------------------------|
A|-----------5-----5--%--3----2-------------%--|-7----7----7----7----7----7----7----7----|
E|---------------------------------3-----3-----|-----------------------------------------|

G|-----------------------------------------|-----------------------------------------|
D|-----------------------------------------|-----------------------------------------|
A|-7----7----7----7----7----7----7----7----|-7----7----7----7----7----7----7----7----|
E|-----------------------------------------|-----------------------------------------|

G|-----------------------------------------|-----------------------------|-----------------------------|
D|-----------------------------------------|-----------------------------|-----------------------------|
A|-7----7----7----7----7----7----7----10---|-10----7-----------7----10---|-10----7-----------7----7----|
E|-----------------------------------------|------------10---------------|------------10---------------|

G|-----------------------------------------|-----------------------------------------|
D|-----------------------------------------|-----------------------------------------|
A|-7----7----7----7----7----7----7----7----|-7----7----7----7----7----7----7----7----|
E|-----------------------------------------|-----------------------------------------|

G|-----------------------------------------|-----------------------------------------|
D|-----------------------------------------|-----------------------------------------|
A|-7----7----7----7----7----7----7----7----|-7----7----7----7----7----7----7----10---|
E|-----------------------------------------|-----------------------------------------|

G|-----------------------------|-----------------------------|-----------------------------------------|
D|-----------------------------|-----------------------------|-----------------------------------------|
A|-10----7-----------7----10---|-10----7-----------7----7----|-7----7----7----7----7----7----7----7----|
E|------------10---------------|------------10---------------|-----------------------------------------|

G|-----------------------------------------|-----------------------------------------|
D|-----------------------------------------|-----------------------------------------|
A|-7----7----7----7----7----7----7----7----|-7----7----7----7----7----7----7----7----|
E|-----------------------------------------|-----------------------------------------|

G|-----------------------------------------|-----------------------------|-7-----------------------|
D|-----------------------------------------|-----------------------------|-------------------------|
A|-7----7----7----7----7----7----7----10---|-10----7-----------7----10---|-10------------7----7----|
E|-----------------------------------------|------------10---------------|--------10---------------|

G|-----------------------------------------|-----------------------------------------|
D|-----------------------------------------|-----------------------------------------|
A|-7----7----7----7----7----7----7----7----|-7----7----7----7----7----7----7----7----|
E|-----------------------------------------|-----------------------------------------|

G|-----------------------------------------|-----------------------------------------|
D|-----------------------------------------|-----------------------------------------|
A|-7----7----7----7----7----7----7----7----|-7----7----7----7----7----7----7----10---|
E|-----------------------------------------|-----------------------------------------|

G|-----------------------------|-----------------------------|-----------------------------------------|
D|-----------------------------|-----------------------------|-----------------------------------------|
A|-10----7-----------7----10---|-10----7-----------7----7----|-7----7----7----7----7----7----7----7----|
E|------------10---------------|------------10---------------|-----------------------------------------|

G|-----------------------------------------|-----------------------------------------|
D|-----------------------------------------|-----------------------------------------|
A|-7----7----7----7----7----7----7----7----|-7----7----7----7----7----7----7----7----|
E|-----------------------------------------|-----------------------------------------|

G|-----------------------------------------|-----------------------------------------|
D|-----------------------------------------|-----------------------------------------|
A|-7----7----7----7----7----7----7----7----|-7----7----7----7----7----7----7----7----|
E|-----------------------------------------|-----------------------------------------|

G|-----------------------------------------|-----------------------------------------|
D|-----------------------------------------|-----------------------------------------|
A|-7----7----7----7----7----7----7----7----|-----------------------------------------|
E|-----------------------------------------|-8----8----8----8----8----8----8----8----|

G|-----------------------------------------|-----------------------------------------|
D|-----------------------------------------|-----------------------------------------|
A|-----------------------------------------|-----------------------------------------|
E|-8----8----8----8----8----8----8----8----|-10---10---10---10---10---10---10---10---|

G|-----------------------------------------|-----------------------------------------|
D|-----------------------------------------|-----------------------------------------|
A|-----------------------------------------|-7----7----7----7----7----7----7----7----|
E|-10---10---10---10---10---10---10---10---|-----------------------------------------|

G|-----------------------------------------|-----------------------------------------|
D|-----------------------------------------|-----------------------------------------|
A|-7----7----7----7----7----7----7----7----|-7----7----7----7----7----7----7----7----|
E|-----------------------------------------|-----------------------------------------|

G|-----------------------------------------|-----------------------------------------|
D|-----------------------------------------|-----------------------------------------|
A|-7----7----7----7----7----7----7----7----|-----------------------------------------|
E|-----------------------------------------|-8----8----8----8----8----8----8----8----|

G|-----------------------------------------|-----------------------------------------|
D|-----------------------------------------|-----------------------------------------|
A|-----------------------------------------|-----------------------------------------|
E|-8----8----8----8----8----8----8----8----|-10---10---10---10---10---10---10---10---|

G|-----------------------------------------|-----------------------------------------|
D|-----------------------------------------|-----------------------------------------|
A|-----------------------------------------|-7----7----7----7----7----7----7----7----|
E|-10---10---10---10---10---10---10---10---|-----------------------------------------|

G|-----------------------------------------|-----------------------------------------|
D|-----------------------------------------|-----------------------------------------|
A|-7----7----7----7----7----7----7----7----|-7----7----7----7----7----7----7----7----|
E|-----------------------------------------|-----------------------------------------|

G|-----------------------------------------|-----------------------------------------|
D|-----------------------------------------|-----------------------------------------|
A|-7----7----7----7----7----7----7----7----|-----------------------------------------|
E|-----------------------------------------|-8----8----8----8----8----8----8----8----|

G|-----------------------------------------|-----------------------------------------|
D|-----------------------------------------|-----------------------------------------|
A|-----------------------------------------|-----------------------------------------|
E|-8----8----8----8----8----8----8----8----|-10---10---10---10---10---10---10---10---|

G|-----------------------------------------|---------------------|-----------------------------------------|
D|-----------------------------------------|---------------------|-----------------------------------------|
A|-----------------------------------------|-7-------------------|---------------------10---9----7---------|
E|-10---10---10---10---10---10---10---10---|--------7------8-----|-8----7----8----7-------------------10---|

G|-----------------------------------------|-----------------------------------------|
D|-----------------------------------------|-----------------------------------------|
A|-7----7----7----7----7----7----7----7----|-7----7----7----7----7----7----7----7----|
E|-----------------------------------------|-----------------------------------------|

G|-----------------------------------------|-----------------------------------------|
D|-----------------------------------------|-----------------------------------------|
A|-----------------------------------------|-----------------------------------------|
E|-8----8----8----8----8----8----8----8----|-8----8----8----8----8----8----8----8----|

G|-----------------------------------------|-----------------------------------------|
D|-----------------------------------------|-----------------------------------------|
A|-----------------------------------------|-----------------------------------------|
E|-10---10---10---10---10---10---10---10---|-10---10---10---10---10---10---10---10---|

G|---------------------|-----------------------------------------|-----------------------------------------|
D|---------------------|-----------------------------------------|-----------------------------------------|
A|-7-------------------|---------------------10---9----7---------|-7----7----7----7----7----7----7----7----|
E|--------7------8-----|-8----7----8----7-------------------10---|-----------------------------------------|

G|-----------------------------------------|-----------------------------------------|
D|-----------------------------------------|-----------------------------------------|
A|-7----7----7----7----7----7----7----7----|-----------------------------------------|
E|-----------------------------------------|-8----8----8----8----8----8----8----8----|

G|-----------------------------------------|-----------------------------------------|
D|-----------------------------------------|-----------------------------------------|
A|-----------------------------------------|-----------------------------------------|
E|-8----8----8----8----8----8----8----8----|-10---10---10---10---10---10---10---10---|

G|-----------------------------------------|-----------------------------------------|
D|-----------------------------------------|-----------------------------------------|
A|-----------------------------------------|-7----7----7----7----7----7----7----7----|
E|-10---10---10---10---10---10---10---10---|-----------------------------------------|

G|-------------------------------------------|-----------------------------------------|
D|--------------------%----------------------|-----------------------------------------|
A|-10---9----7-----7--%--10---9----7----5----|-7----7----7----7----7----7----7----7----|
E|-------------------------------------------|-----------------------------------------|

G|-----------------------------------------|-----------------------------------------|
D|-----------------------------------------|-----------------------------------------|
A|-7----7----7----7----7----7----7----7----|-----------------------------------------|
E|-----------------------------------------|-8----8----8----8----8----8----8----8----|

G|-----------------------------------------|-----------------------------------------|
D|-----------------------------------------|-----------------------------------------|
A|-----------------------------------------|-----------------------------------------|
E|-8----8----8----8----8----8----8----8----|-10---10---10---10---10---10---10---10---|

G|-----------------------------------------|---------|-------------------|---------|
D|-----------------------------------------|---------|-------------------|---------|
A|-----------------------------------------|-7-------|-7-------7---------|-5-------|
E|-10---10---10---10---10---10---10---10---|---------|--------------5----|---------|

G|-------------------|---------|-------------------|---------|-------------------|---------|
D|-------------------|---------|-------------------|---------|-4-----------------|---------|
A|-5-------5---------|-3-------|-3-------3---------|-5-------|-5-------5---------|-7-------|
E|--------------3----|---------|--------------5----|---------|--------------7----|---------|

G|-------------------|
D|---------------%---|
A|-7-------7-----%---|
E|-------------------|
Iron Maiden - Hallowed Be Thy Name (2)
Iron Maiden - Hallowed Be Thy Name (2).gp3