Iron Maiden - Heaven Can Wait

Iron Maiden - Heaven Can Wait

Iron Maiden



Title: Heaven Can Wait
Album: A Real Live One
Artist: Iron Maiden
Author: Iron Maiden

Track 1: Janick Gears (Distortion Guitar)
E|-----------------------------------------|-----------------------------------------|
B|-----------------------------------------|-----------------------------------------|
G|-7----9----9----9----%----7----%----9----|-%----7----%----7----7----9----7----%----|
D|-7---------7----7----%----7----%----7----|-%----7----%----7----7---------7----%----|
A|-----------------------------------------|-----------------------------------------|
E|-----------------------------------------|-----------------------------------------|

E|-----------------------------------------|-----------------------------------------|
B|-----------------------------------------|-----------------------------------------|
G|-5----7----7----7----%----5----%----7----|-%----5----%----5----5----7----5----%----|
D|-5---------5----5----%----5----%----5----|-%----5----%----5----5---------5----%----|
A|-----------------------------------------|-----------------------------------------|
E|-----------------------------------------|-----------------------------------------|

E|-----------------------------------------|-----------------------------------------|
B|-----------------------------------------|-----------------------------------------|
G|-7----9----9----9----%----7----%----9----|-%----7----%----7----7----9----7----%----|
D|-7---------7----7----%----7----%----7----|-%----7----%----7----7---------7----%----|
A|-----------------------------------------|-----------------------------------------|
E|-----------------------------------------|-----------------------------------------|

E|-------------------------------------|-------------------------------------|-----------------------------------------|
B|-------------------------------------|-------------------------------------|-----------------------------------------|
G|-10---12---10---12---%----10---%-----|-12---14---12---14---%----12---%-----|-7----9----9----9----%----7----%----9----|
D|-10--------10---10---%----10---%-----|-12--------12---12---%----12---%-----|-7---------7----7----%----7----%----7----|
A|-------------------------------------|-------------------------------------|-----------------------------------------|
E|-------------------------------------|-------------------------------------|-----------------------------------------|

E|-----------------------------------------|-----------------------------------------|
B|-----------------------------------------|-----------------------------------------|
G|-%----7----%----7----7----9----7----%----|-5----7----7----7----%----5----%----7----|
D|-%----7----%----7----7---------7----%----|-5---------5----5----%----5----%----5----|
A|-----------------------------------------|-----------------------------------------|
E|-----------------------------------------|-----------------------------------------|

E|-----------------------------------------|-----------------------------------------|
B|-----------------------------------------|-----------------------------------------|
G|-%----5----%----5----5----7----5----%----|-7----9----9----9----%----7----%----9----|
D|-%----5----%----5----5---------5----%----|-7---------7----7----%----7----%----7----|
A|-----------------------------------------|-----------------------------------------|
E|-----------------------------------------|-----------------------------------------|

E|-----------------------------------------|-------------------------------------|-------------------------------------|
B|-----------------------------------------|-------------------------------------|-------------------------------------|
G|-%----7----%----7----7----9----7----%----|-10---12---10---12---%----10---%-----|-12---14---12---14---%----12---%-----|
D|-%----7----%----7----7---------7----%----|-10--------10---10---%----10---%-----|-12--------12---12---%----12---%-----|
A|-----------------------------------------|-------------------------------------|-------------------------------------|
E|-----------------------------------------|-------------------------------------|-------------------------------------|

E|-17---17---17---17--------17--------17---|------17--------17---17---17---17--------|
B|-----------------------------------------|-----------------------------------------|
G|-14---14---14---14---%----14---%----14---|-%----14---%----14---14---14---14---%----|
D|---------------------%---------%---------|-%---------%------------------------%----|
A|-----------------------------------------|-----------------------------------------|
E|-----------------------------------------|-----------------------------------------|

E|-17---17---17---17--------17--------17---|------17--------17---17---17---17--------|
B|-----------------------------------------|-----------------------------------------|
G|-14---14---14---14---%----14---%----14---|-%----14---%----14---14---14---14---%----|
D|---------------------%---------%---------|-%---------%------------------------%----|
A|-----------------------------------------|-----------------------------------------|
E|-----------------------------------------|-----------------------------------------|

E|-17---17---17---17--------17--------17---|------17--------17---17---17---17--------|
B|-----------------------------------------|-----------------------------------------|
G|-14---14---14---14---%----14---%----14---|-%----14---%----14---14---14---14---%----|
D|---------------------%---------%---------|-%---------%------------------------%----|
A|-----------------------------------------|-----------------------------------------|
E|-----------------------------------------|-----------------------------------------|

E|-17---17---17---17--------17---------|-17---17---17---17--------17---------|-----------------------------------------|
B|-------------------------------------|-------------------------------------|-----------------------------------------|
G|-14---14---14---14---%----14---%-----|-14---14---14---14---%----14---%-----|-7----9----9----9----%----7----%----9----|
D|---------------------%---------%-----|---------------------%---------%-----|-7----9----7----7----%----7----%----7----|
A|-------------------------------------|-------------------------------------|-7---------7----7---------7---------7----|
E|-------------------------------------|-------------------------------------|-----------------------------------------|

E|-----------------------------------------|-----------------------------------------|
B|-----------------------------------------|-----------------------------------------|
G|-%----7----%----7----7----9----7----%----|-5----7----7----7----%----5----%----7----|
D|-%----7----%----7----7----9----7----%----|-5----7----5----5----%----5----%----5----|
A|------7---------7----7---------7---------|-5---------5----5---------5---------5----|
E|-----------------------------------------|-----------------------------------------|

E|-----------------------------------------|-----------------------------------------|
B|-----------------------------------------|-----------------------------------------|
G|-%----5----%----5----5----7----5----%----|-7----9----9----9----%----7----%----9----|
D|-%----5----%----5----5----7----5----%----|-7----9----7----7----%----7----%----7----|
A|------5---------5----5---------5---------|-7---------7----7---------7---------7----|
E|-----------------------------------------|-----------------------------------------|

E|-----------------------------------------|-------------------------------------|-------------------------------------|
B|-----------------------------------------|-------------------------------------|-------------------------------------|
G|-%----7----%----7----7----9----7----%----|-10---12---10---12---%----10---%-----|-12---14---12---14---%----12---%-----|
D|-%----7----%----7----7----9----7----%----|-10---12---10---10---%----10---%-----|-12---14---12---14---%----12---%-----|
A|------7---------7----7---------7---------|-10---10---10---10--------10---------|-12---12---12---12--------12---------|
E|-----------------------------------------|-------------------------------------|-------------------------------------|

E|-----------------------------------------|-----------------------------------------|
B|-----------------------------------------|-----------------------------------------|
G|-7----9----9----9----%----7----%----9----|-%----7----%----7----7----9----7----%----|
D|-7----9----7----7----%----7----%----7----|-%----7----%----7----7----9----7----%----|
A|-7---------7----7---------7---------7----|------7---------7----7---------7---------|
E|-----------------------------------------|-----------------------------------------|

E|-----------------------------------------|-----------------------------------------|
B|-----------------------------------------|-----------------------------------------|
G|-5----7----7----7----%----5----%----7----|-%----5----%----5----5----7----5----%----|
D|-5----7----5----5----%----5----%----5----|-%----5----%----5----5----7----5----%----|
A|-5---------5----5---------5---------5----|------5---------5----5---------5---------|
E|-----------------------------------------|-----------------------------------------|

E|-----------------------------------------|-----------------------------------------|
B|-----------------------------------------|-----------------------------------------|
G|-7----9----9----9----%----7----%----9----|-%----7----%----7----7----9----7----%----|
D|-7----9----7----7----%----7----%----7----|-%----7----%----7----7----9----7----%----|
A|-7---------7----7---------7---------7----|------7---------7----7---------7---------|
E|-----------------------------------------|-----------------------------------------|

E|-------------------------------------|-----------------------------------------|-------------------------------------|
B|-------------------------------------|-----------------------------------------|-------------------------------------|
G|-10---12---10---12---%----10---%-----|-12---14---12---14---14---7----7----7----|-7-----7----7----7----7----7----7----|
D|-10---12---10---10---%----10---%-----|-12---14---12---14---14---7----7----7----|-7-----7----7----7----7----7----7----|
A|-10---10---10---10--------10---------|-12---12---12---12---12---5----5----5----|-5-----5----5----5----5----5----5----|
E|-------------------------------------|-----------------------------------------|-------------------------------------|

E|-----------------------------------------|-------------------------------------|-----------------------------------------|
B|-----------------------------------------|-------------------------------------|-----------------------------------------|
G|-7----7----7----7----7----7----7----7----|-7-----7----7----7----7----7----7----|-7----7----7----7----7----7----7----7----|
D|-7----7----7----7----7----7----7----7----|-7-----7----7----7----7----7----7----|-7----7----7----7----7----7----7----7----|
A|-5----5----5----5----5----5----5----5----|-5-----5----5----5----5----5----5----|-5----5----5----5----5----5----5----5----|
E|-----------------------------------------|-------------------------------------|-----------------------------------------|

E|---------------------------------|-------------------------------------|-------------------------------------|
B|---------------------------------|-------------------------------------|-------------------------------------|
G|---------------------------------|-------------------------------------|-----------7-----7----7----7----7----|
D|-5----4--------------------------|-5----4-------------------------5----|-5----4----7-----7----7----7----7----|
A|-----------7----5----5----7------|-----------7----5----5-----7---------|-----------5-----5----5----5----5----|
E|---------------------------------|-------------------------------------|-------------------------------------|

E|-----------------------------------------|-------------------------------------|-----------------------------------------|
B|-----------------------------------------|-------------------------------------|-----------------------------------------|
G|-7----7----7----7----7----%----7----7----|-7-----7----7----7----7----7----7----|-7----7----7----7----7----7----7----7----|
D|-7----7----7----7----7----%----7----7----|-7-----7----7----7----7----7----7----|-7----7----7----7----7----7----7----7----|
A|-5----5----5----5----5---------5----5----|-5-----5----5----5----5----5----5----|-5----5----5----5----5----5----5----5----|
E|-----------------------------------------|-------------------------------------|-----------------------------------------|

E|-------------------------------------|-----------------------------------------|---------------------------------|
B|-------------------------------------|-----------------------------------------|---------------------------------|
G|-7-----7----7----7----7----7----7----|-7----7----7----7----7----7----7----7----|---------------------------------|
D|-7-----7----7----7----7----7----7----|-7----7----7----7----7----7----7----7----|-5----4--------------------------|
A|-5-----5----5----5----5----5----5----|-5----5----5----5----5----5----5----5----|-----------7----5----5----7------|
E|-------------------------------------|-----------------------------------------|---------------------------------|

E|-------------------------------------|-------------------------------------|-----------------------------------------|
B|-------------------------------------|-------------------------------------|-----------------------------------------|
G|-------------------------------------|-----------7-----7----7----7----7----|-7----7----7----7----7----2----3----3----|
D|-5----4-------------------------5----|-5----4----7-----7----7----7----7----|-7----7----7----7----7----2----3----3----|
A|-----------7----5----5-----7---------|-----------5-----5----5----5----5----|-5----5----5----5----5----0----1----1----|
E|-------------------------------------|-------------------------------------|-----------------------------------------|

E|-------------------------------------|-----------------------------------------|-------------------------------------|
B|-------------------------------------|-----------------------------------------|-------------------------------------|
G|-3-----3----3----3----3----3----3----|-3----3----3----3----3----2----2----3----|-3-----3----3----3----3----3----3----|
D|-3-----3----3----3----3----3----3----|-3----3----3----3----3----2----2----3----|-3-----3----3----3----3----3----3----|
A|-1-----1----1----1----1----1----1----|-1----1----1----1----1----0----0----1----|-1-----1----1----1----1----1----1----|
E|-------------------------------------|-----------------------------------------|-------------------------------------|

E|-----------------------------------------|-------------------------------------|-------------------------------------|
B|-----------------------------------------|-------------------------------------|-------------------------------------|
G|-3----3----3----3----3----3----3----5----|-5-----5----5----5----5----5----5----|-5----5----5----5----5----5----5-----|
D|-3----3----3----3----3----3----3----5----|-5-----5----5----5----5----5----5----|-5----5----5----5----5----5----5-----|
A|-1----1----1----1----1----1----1----3----|-3-----3----3----3----3----3----3----|-3----3----3----3----3----3----3-----|
E|-----------------------------------------|-------------------------------------|-------------------------------------|

E|-------------------------------------|------------------------|-------------------------|
B|-------------------------------------|------------------------|-------------------------|
G|---------------------%---------5-----|-5----------------------|-7------7----7-----7-----|
D|-3----2----0---------%----0----5-----|-5----------------------|-7------7----7-----7-----|
A|----------------3---------5----3-----|-3------3----0----0-----|-5------5----5-----5-----|
E|-------------------------------------|------------------------|-------------------------|

E|---------|-------------------------|---------|-------------------------|---------|
B|---------|-------------------------|---------|-------------------------|---------|
G|-7-------|-5------5----5-----5-----|-5-------|-------------------------|---------|
D|-7-------|-5------5----5-----5-----|-5-------|-3------3----3-----3-----|-3-------|
A|-5-------|-3------3----3-----3-----|-3-------|-3------3----3-----3-----|-3-------|
E|---------|-------------------------|---------|-1------1----1-----1-----|-1-------|

E|-------------------------|---------|-------------------------|---------|-------------------------|
B|-------------------------|---------|-------------------------|---------|-------------------------|
G|-------------------------|---------|-7------7----7-----7-----|-7-------|-5------5----5-----5-----|
D|-5------5----5-----5-----|-5-------|-7------7----7-----7-----|-7-------|-5------5----5-----5-----|
A|-5------5----5-----5-----|-5-------|-5------5----5-----5-----|-5-------|-3------3----3-----3-----|
E|-3------3----3-----3-----|-3-------|-------------------------|---------|-------------------------|

E|---------|-------------------------|---------|-------------------------|---------|
B|---------|-------------------------|---------|-------------------------|---------|
G|-5-------|-------------------------|---------|-------------------------|---------|
D|-5-------|-3------3----3-----3-----|-3-------|-5------5----5-----5-----|-5-------|
A|-3-------|-3------3----3-----3-----|-3-------|-5------5----5-----5-----|-5-------|
E|---------|-1------1----1-----1-----|-1-------|-3------3----3-----3-----|-3-------|

E|-------------------------------------|-----------------------------------------|-------------------------------------|
B|-------------------------------------|-----------------------------------------|-------------------------------------|
G|-------7----7----7----7----7----7----|-7----7----7----7----7----7----7----7----|-7-----7----7----7----7----7----7----|
D|-5-----7----7----7----7----7----7----|-7----7----7----7----7----7----7----7----|-7-----7----7----7----7----7----7----|
A|-5-----5----5----5----5----5----5----|-5----5----5----5----5----5----5----5----|-5-----5----5----5----5----5----5----|
E|-3-----------------------------------|-----------------------------------------|-------------------------------------|

E|-----------------------------------------|---------------------------------|-------------------------------------|
B|-----------------------------------------|---------------------------------|-------------------------------------|
G|-7----7----7----7----7----7----7----7----|---------------------------------|-------------------------------------|
D|-7----7----7----7----7----7----7----7----|-5----4--------------------------|-5----4-------------------------5----|
A|-5----5----5----5----5----5----5----5----|-----------7----5----5----7------|-----------7----5----5-----7---------|
E|-----------------------------------------|---------------------------------|-------------------------------------|

E|-------------------------------------|-----------------------------------------|-------------------------------------|
B|-------------------------------------|-----------------------------------------|-------------------------------------|
G|-----------7-----7----7----7----7----|-7----7----7----7----7----%----7----7----|-7-----7----7----7----7----7----7----|
D|-5----4----7-----7----7----7----7----|-7----7----7----7----7----%----7----7----|-7-----7----7----7----7----7----7----|
A|-----------5-----5----5----5----5----|-5----5----5----5----5---------5----5----|-5-----5----5----5----5----5----5----|
E|-------------------------------------|-----------------------------------------|-------------------------------------|

E|-----------------------------------------|-------------------------------------|-----------------------------------------|
B|-----------------------------------------|-------------------------------------|-----------------------------------------|
G|-7----7----7----7----7----7----7----7----|-7-----7----7----7----7----7----7----|-7----7----7----7----7----7----7----7----|
D|-7----7----7----7----7----7----7----7----|-7-----7----7----7----7----7----7----|-7----7----7----7----7----7----7----7----|
A|-5----5----5----5----5----5----5----5----|-5-----5----5----5----5----5----5----|-5----5----5----5----5----5----5----5----|
E|-----------------------------------------|-------------------------------------|-----------------------------------------|

E|---------------------------------|-------------------------------------|-------------------------------------|
B|---------------------------------|-------------------------------------|-------------------------------------|
G|---------------------------------|-------------------------------------|-----------7-----7----7----7----7----|
D|-5----4--------------------------|-5----4-------------------------5----|-5----4----7-----7----7----7----7----|
A|-----------7----5----5----7------|-----------7----5----5-----7---------|-----------5-----5----5----5----5----|
E|---------------------------------|-------------------------------------|-------------------------------------|

E|-----------------------------------------|-------------------------------------|-----------------------------------------|
B|-----------------------------------------|-------------------------------------|-----------------------------------------|
G|-7----7----7----7----7----2----3----3----|-3-----3----3----3----3----3----3----|-3----3----3----3----3----2----2----3----|
D|-7----7----7----7----7----2----3----3----|-3-----3----3----3----3----3----3----|-3----3----3----3----3----2----2----3----|
A|-5----5----5----5----5----0----1----1----|-1-----1----1----1----1----1----1----|-1----1----1----1----1----0----0----1----|
E|-----------------------------------------|-------------------------------------|-----------------------------------------|

E|-------------------------------------|-----------------------------------------|-------------------------------------|
B|-------------------------------------|-----------------------------------------|-------------------------------------|
G|-3-----3----3----3----3----3----3----|-3----3----3----3----3----3----3----5----|-5-----5----5----5----5----5----5----|
D|-3-----3----3----3----3----3----3----|-3----3----3----3----3----3----3----5----|-5-----5----5----5----5----5----5----|
A|-1-----1----1----1----1----1----1----|-1----1----1----1----1----1----1----3----|-3-----3----3----3----3----3----3----|
E|-------------------------------------|-----------------------------------------|-------------------------------------|

E|-------------------------------------|-------------------------------------|------------------------|
B|-------------------------------------|-------------------------------------|------------------------|
G|-5----5----5----5----5----5----5-----|---------------------%---------5-----|-5----------------------|
D|-5----5----5----5----5----5----5-----|-3----2----0---------%----0----5-----|-5----------------------|
A|-3----3----3----3----3----3----3-----|----------------3---------5----3-----|-3------3----0----0-----|
E|-------------------------------------|-------------------------------------|------------------------|

E|-------------------------|---------|-------------------------|---------|-------------------------|
B|-------------------------|---------|-------------------------|---------|-------------------------|
G|-7------7----7-----7-----|-7-------|-5------5----5-----5-----|-5-------|-------------------------|
D|-7------7----7-----7-----|-7-------|-5------5----5-----5-----|-5-------|-3------3----3-----3-----|
A|-5------5----5-----5-----|-5-------|-3------3----3-----3-----|-3-------|-3------3----3-----3-----|
E|-------------------------|---------|-------------------------|---------|-1------1----1-----1-----|

E|---------|-------------------------|---------|-------------------------|---------|
B|---------|-------------------------|---------|-------------------------|---------|
G|---------|-------------------------|---------|-7------7----7-----7-----|-7-------|
D|-3-------|-5------5----5-----5-----|-5-------|-7------7----7-----7-----|-7-------|
A|-3-------|-5------5----5-----5-----|-5-------|-5------5----5-----5-----|-5-------|
E|-1-------|-3------3----3-----3-----|-3-------|-------------------------|---------|

E|-------------------------|---------|-------------------------|---------|-------------------------|
B|-------------------------|---------|-------------------------|---------|-------------------------|
G|-5------5----5-----5-----|-5-------|-------------------------|---------|-------------------------|
D|-5------5----5-----5-----|-5-------|-3------3----3-----3-----|-3-------|-5------5----5-----5-----|
A|-3------3----3-----3-----|-3-------|-3------3----3-----3-----|-3-------|-5------5----5-----5-----|
E|-------------------------|---------|-1------1----1-----1-----|-1-------|-3------3----3-----3-----|

E|-------------------|-----------------------------------------|-----------------------------------------|
B|-------------------|-----------------------------------------|-----------------------------------------|
G|-7-------%---------|-----------------------------------------|-----------------------------------------|
D|---------%---------|-----------9---------7-------------------|-7---------9---------7---------6---------|
A|--------------7----|-7----7---------7---------7----10---7----|------7---------7---------7---------7----|
E|-------------------|-----------------------------------------|-----------------------------------------|

E|-----------------------------------------|-----------------------------------------|
B|-----------------------------------------|-----------------------------------------|
G|-----------------------------------------|---------------------9-------------------|
D|-----------9---------7-------------------|-7---------9--------------9----7---------|
A|-7----7---------7---------7----10---7----|------7---------7-------------------7----|
E|-----------------------------------------|-----------------------------------------|

E|-----------------------------------------|-----------------------------------------|
B|-----------------------------------------|-----------------------------------------|
G|-----------------------------------------|-----------------------------------------|
D|-----------9---------7-------------------|-7---------9---------7-------------------|
A|-7----7---------7---------7----10---7----|------7---------7---------7----10---7----|
E|-----------------------------------------|-----------------------------------------|

E|-----------------------------------------|-----------------------------------------|
B|-----------------------------------------|-----------------------------------------|
G|-----------------------------------------|---------------------9-------------------|
D|-----------9---------7---------7---------|-7---------9--------------9----7---------|
A|-7----7---------7---------7---------7----|------7---------7-------------------3----|
E|-----------------------------------------|-----------------------------------------|

E|-----------------------------------------|-----------------------------------------|
B|-----------------------------------------|-----------------------------------------|
G|-----------------------------------------|-----------------------------------------|
D|-----------5---------4---------5---------|-4---------5---------4---------5---------|
A|-3----3---------3---------3---------3----|------3---------3---------3---------3----|
E|-----------------------------------------|-----------------------------------------|

E|-----------------------------------------|-----------------------------------------|
B|-----------------------------------------|-----------------------------------------|
G|-----------------------------------------|-----------------------------------------|
D|-----------5----5----4----4----5----5----|-4----4----5----5----4----4----5---------|
A|-3----3----------------------------------|------------------------------------0----|
E|-----------------------------------------|-----------------------------------------|

E|-----------------------------------------|-----------------------------------------|
B|-----------------------------------------|-----------------------------------------|
G|-----------------------------------------|-----------------------------------------|
D|-----------4---------4---------5---------|-4---------5---------4----4----5---------|
A|-0----0---------0---------0---------0----|------0---------0------------------------|
E|-----------------------------------------|------------------------------------0----|

E|-----------------------------------------|-----------------------------------------|
B|-----------------------------------------|-----------------------------------------|
G|-----------------------------------------|-----------------------------------------|
D|-----------4----4----4----4----4----4----|-4---------4----5----4----5----0----2----|
A|-----------------------------------------|-----------------------------------------|
E|-0----0----------------------------------|------0----------------------------------|

E|-----------------------------------------|-----------------------------------------|
B|-----------------------------------------|-----------------------------------------|
G|-----------------------------------------|-----------------------------------------|
D|-2---------9---------7-------------------|-7---------9---------7---------6---------|
A|------7---------7---------7----10---7----|------7---------7---------7---------7----|
E|-----------------------------------------|-----------------------------------------|

E|-----------------------------------------|-----------------------------------------|
B|-----------------------------------------|-----------------------------------------|
G|-----------------------------------------|---------------------9-------------------|
D|-----------9---------7-------------------|-7---------9--------------9----7---------|
A|-7----7---------7---------7----10---7----|------7---------7-------------------7----|
E|-----------------------------------------|-----------------------------------------|

E|-----------------------------------------|-----------------------------------------|
B|-----------------------------------------|-----------------------------------------|
G|-----------------------------------------|-----------------------------------------|
D|-----------9---------7-------------------|-7---------9---------7-------------------|
A|-7----7---------7---------7----10---7----|------7---------7---------7----10---7----|
E|-----------------------------------------|-----------------------------------------|

E|-----------------------------------------|-----------------------------------------|
B|-----------------------------------------|-----------------------------------------|
G|-----------------------------------------|---------------------9-------------------|
D|-----------9---------7---------7---------|-7---------9--------------9----7---------|
A|-7----7---------7---------7---------7----|------7---------7-------------------3----|
E|-----------------------------------------|-----------------------------------------|

E|-----------------------------------------|-----------------------------------------|
B|-----------------------------------------|-----------------------------------------|
G|-----------------------------------------|-----------------------------------------|
D|-----------5---------4---------5---------|-4---------5---------4---------5---------|
A|-3----3---------3---------3---------3----|------3---------3---------3---------3----|
E|-----------------------------------------|-----------------------------------------|

E|-----------------------------------------|-----------------------------------------|
B|-----------------------------------------|-----------------------------------------|
G|-----------------------------------------|-----------------------------------------|
D|-----------5----5----4----4----5----5----|-4----4----5----5----4----4----5---------|
A|-3----3----------------------------------|------------------------------------0----|
E|-----------------------------------------|-----------------------------------------|

E|-----------------------------------------|-----------------------------------------|
B|-----------------------------------------|-----------------------------------------|
G|-----------------------------------------|-----------------------------------------|
D|-----------4---------4---------5---------|-4---------5---------4----4----5---------|
A|-0----0---------0---------0---------0----|------0---------0------------------------|
E|-----------------------------------------|------------------------------------0----|

E|-----------------------------------------|-----------------------------------------|
B|-----------------------------------------|-----------------------------------------|
G|-----------------------------------------|-----------------------------------------|
D|-----------4----4----4----4----4----4----|-4---------4----5----4----5----0----2----|
A|-----------------------------------------|-----------------------------------------|
E|-0----0----------------------------------|------0----------------------------------|

E|----------------------------------------------|----------------------------------------------|
B|----------------------------------------------|----------------------------------------------|
G|-9----9---9---9----9---9---9----9---9---12----|-7----7---7---7----7---7---7----7---7---12----|
D|-9----9---9---9----9---9---9----9---9---12----|-7----7---7---7----7---7---7----7---7---12----|
A|-7----7---7---7----7---7---7----7---7---10----|-5----5---5---5----5---5---5----5---5---10----|
E|----------------------------------------------|----------------------------------------------|

E|--------------------------------------------------|-------------------------|----------------------------------------------|
B|--------------------------------------------------|-------------------------|----------------------------------------------|
G|-9----9---9---9----9---9---9----9---9---9----9----|-5-----5-----7-----7-----|-9----9---9---9----9---9---9----9---9---12----|
D|-9----9---9---9----9---9---9----9---9---9----9----|-5-----5-----7-----7-----|-9----9---9---9----9---9---9----9---9---12----|
A|-7----7---7---7----7---7---7----7---7---7----7----|-3-----3-----5-----5-----|-7----7---7---7----7---7---7----7---7---10----|
E|--------------------------------------------------|-------------------------|----------------------------------------------|

E|----------------------------------------------|--------------------------------------------------|
B|----------------------------------------------|--------------------------------------------------|
G|-7----7---7---7----7---7---7----7---7---12----|-9----9---9---9----9---9---9----9---9---9----9----|
D|-7----7---7---7----7---7---7----7---7---12----|-9----9---9---9----9---9---9----9---9---9----9----|
A|-5----5---5---5----5---5---5----5---5---10----|-7----7---7---7----7---7---7----7---7---7----7----|
E|----------------------------------------------|--------------------------------------------------|

E|-----------------------------|----------------------------------------------|----------------------------------------------|
B|-----------------------------|----------------------------------------------|----------------------------------------------|
G|-5-----5-----7-----7---7-----|----------------------------------------5-----|----------------------------------------5-----|
D|-5-----5-----7-----7---7-----|-7----7---7---7----7---7---7----7---7---5-----|-5----5---5---5----5---5---5----5---5---5-----|
A|-3-----3-----5-----5---5-----|-7----7---7---7----7---7---7----7---7---3-----|-5----5---5---5----5---5---5----5---5---3-----|
E|-----------------------------|-5----5---5---5----5---5---5----5---5---------|-3----3---3---3----3---3---3----3---3---------|

E|--------------------------------------------------|-------------------------|----------------------------------------------|
B|--------------------------------------------------|-------------------------|----------------------------------------------|
G|--------------------------------------------------|-------------------------|----------------------------------------5-----|
D|-7----7---7---7----7---7---7----7---7---7----7----|-3-----3-----5-----5-----|-7----7---7---7----7---7---7----7---7---5-----|
A|-7----7---7---7----7---7---7----7---7---7----7----|-3-----3-----5-----5-----|-7----7---7---7----7---7---7----7---7---3-----|
E|-5----5---5---5----5---5---5----5---5---5----5----|-1-----1-----3-----3-----|-5----5---5---5----5---5---5----5---5---------|

E|----------------------------------------------|--------------------------------------------------|
B|----------------------------------------------|--------------------------------------------------|
G|----------------------------------------5-----|--------------------------------------------------|
D|-5----5---5---5----5---5---5----5---5---5-----|-7----7---7---7----7---7---7----7---7---7----7----|
A|-5----5---5---5----5---5---5----5---5---3-----|-7----7---7---7----7---7---7----7---7---7----7----|
E|-3----3---3---3----3---3---3----3---3---------|-5----5---5---5----5---5---5----5---5---5----5----|

E|-------------------------|----------------------------------------------|----------------------------------------------|
B|-------------------------|----------------------------------------------|----------------------------------------------|
G|-------------------------|-7----7---7---7----7---7---7----7---7---7-----|-7----7---7---7----7---7---7----7---7---7-----|
D|-3-----3-----5-----5-----|-7----7---7---7----7---7---7----7---7---7-----|-7----7---7---7----7---7---7----7---7---7-----|
A|-3-----3-----5-----5-----|-5----5---5---5----5---5---5----5---5---5-----|-5----5---5---5----5---5---5----5---5---5-----|
E|-1-----1-----3-----3-----|----------------------------------------------|----------------------------------------------|

E|-----------------------------------------------------|-----------------------------------------------------|
B|-----------------------------------------------------|-----------------------------------------------------|
G|-7----7---7---7----7---7---7----7---7---7----7---7---|-7----7---7---7----7---7---7----7---7---7----7---7---|
D|-7----7---7---7----7---7---7----7---7---7----7---7---|-7----7---7---7----7---7---7----7---7---7----7---7---|
A|-5----5---5---5----5---5---5----5---5---5----5---5---|-5----5---5---5----5---5---5----5---5---5----5---5---|
E|-----------------------------------------------------|-----------------------------------------------------|

E|-----------------------------------------------------|---------------------------------------|
B|-----------------------------------------------------|---------------------------------------|
G|-7----7---7---7----7---7---7----7---7---7----7---7---|-7----7---7---7----7---7---5-----5-----|
D|-7----7---7---7----7---7---7----7---7---7----7---7---|-7----7---7---7----7---7---5-----5-----|
A|-5----5---5---5----5---5---5----5---5---5----5---5---|-5----5---5---5----5---5---3-----3-----|
E|-----------------------------------------------------|---------------------------------------|

E|-----------------------------------------------------|-----------------------------------------------------|
B|-----------------------------------------------------|-----------------------------------------------------|
G|-7----7---7---7----7---7---7----7---7---7----7---7---|-3----3---3---3----3---3---3----3---3---3----3---3---|
D|-7----7---7---7----7---7---7----7---7---7----7---7---|-3----3---3---3----3---3---3----3---3---3----3---3---|
A|-5----5---5---5----5---5---5----5---5---5----5---5---|-1----1---1---1----1---1---1----1---1---1----1---1---|
E|-----------------------------------------------------|-----------------------------------------------------|

E|-----------------------------------------------------|---------------------------------------|
B|-----------------------------------------------------|---------------------------------------|
G|-5----5---5---5----5---5---5----5---5---5----5---5---|-7----7---7---7----7---7---5-----5-----|
D|-5----5---5---5----5---5---5----5---5---5----5---5---|-7----7---7---7----7---7---5-----5-----|
A|-3----3---3---3----3---3---3----3---3---3----3---3---|-5----5---5---5----5---5---3-----3-----|
E|-----------------------------------------------------|---------------------------------------|

E|-----------------------------------------------------|-----------------------------------------------------|
B|-----------------------------------------------------|-----------------------------------------------------|
G|-7----7---7---7----7---7---7----7---7---7----7---7---|-3----3---3---3----3---3---3----3---3---3----3---3---|
D|-7----7---7---7----7---7---7----7---7---7----7---7---|-3----3---3---3----3---3---3----3---3---3----3---3---|
A|-5----5---5---5----5---5---5----5---5---5----5---5---|-1----1---1---1----1---1---1----1---1---1----1---1---|
E|-----------------------------------------------------|-----------------------------------------------------|

E|-----------------------------------------------------|---------------------------------------|
B|-----------------------------------------------------|---------------------------------------|
G|-5----5---5---5----5---5---5----5---5---5----5---5---|-7----7---7---7----7---7---5-----5-----|
D|-5----5---5---5----5---5---5----5---5---5----5---5---|-7----7---7---7----7---7---5-----5-----|
A|-3----3---3---3----3---3---3----3---3---3----3---3---|-5----5---5---5----5---5---3-----3-----|
E|-----------------------------------------------------|---------------------------------------|

E|-----------------------------------------------------|-----------------------------------------------------|
B|-----------------------------------------------------|-----------------------------------------------------|
G|-7----7---7---7----7---7---7----7---7---7----7---7---|-3----3---3---3----3---3---3----3---3---3----3---3---|
D|-7----7---7---7----7---7---7----7---7---7----7---7---|-3----3---3---3----3---3---3----3---3---3----3---3---|
A|-5----5---5---5----5---5---5----5---5---5----5---5---|-1----1---1---1----1---1---1----1---1---1----1---1---|
E|-----------------------------------------------------|-----------------------------------------------------|

E|-----------------------------------------------------|---------------------------------------|
B|-----------------------------------------------------|---------------------------------------|
G|-5----5---5---5----5---5---5----5---5---5----5---5---|-7----7---7---7----7---7---5-----5-----|
D|-5----5---5---5----5---5---5----5---5---5----5---5---|-7----7---7---7----7---7---5-----5-----|
A|-3----3---3---3----3---3---3----3---3---3----3---3---|-5----5---5---5----5---5---3-----3-----|
E|-----------------------------------------------------|---------------------------------------|

E|-----------------------------------------------------|-----------------------------------------------------|
B|-----------------------------------------------------|-----------------------------------------------------|
G|-7----7---7---7----7---7---7----7---7---7----7---7---|-3----3---3---3----3---3---3----3---3---3----3---3---|
D|-7----7---7---7----7---7---7----7---7---7----7---7---|-3----3---3---3----3---3---3----3---3---3----3---3---|
A|-5----5---5---5----5---5---5----5---5---5----5---5---|-1----1---1---1----1---1---1----1---1---1----1---1---|
E|-----------------------------------------------------|-----------------------------------------------------|

E|-----------------------------------------------------|---------------------------------------------|
B|-----------------------------------------------------|---------------------------------------------|
G|-5----5---5---5----5---5---5----5---5---5----5---5---|-5----5---5---5----5---5---5----9---9---9----|
D|-5----5---5---5----5---5---5----5---5---5----5---5---|-5----5---5---5----5---5---5----9---9---9----|
A|-3----3---3---3----3---3---3----3---3---3----3---3---|-3----3---3---3----3---3---3----7---7---7----|
E|-----------------------------------------------------|---------------------------------------------|

E|-----------------------------------------|-----------------------------------------|
B|-----------------------------------------|-----------------------------------------|
G|-9----9----11---9----9----7----7----9----|-9----11---11---9----9----7----7----9----|
D|-9----9----9----7----7----5----5----7----|-7----9----9----7----7----5----5----9----|
A|-7----7----------------------------------|------------------------------------7----|
E|-----------------------------------------|-----------------------------------------|

E|-----------------------------------------|-----------------------------------------|
B|-----------------------------------------|-----------------------------------------|
G|-9----9----11---9----9----7----7----9----|-9----11---11---9----9----7----7----9----|
D|-9----9----9----7----7----5----5----7----|-7----9----9----7----7----5----5----9----|
A|-7----7----------------------------------|------------------------------------7----|
E|-----------------------------------------|-----------------------------------------|

E|-----------------------------------------|-----------------------------------------|
B|-----------------------------------------|-----------------------------------------|
G|-9----9----11---9----9----7----7----9----|-9----11---11---9----9----7----7----9----|
D|-9----9----9----7----7----5----5----7----|-7----9----9----7----7----5----5----9----|
A|-7----7----------------------------------|------------------------------------7----|
E|-----------------------------------------|-----------------------------------------|

E|-----------------------------------------|-----------------------------------------|
B|-----------------------------------------|-----------------------------------------|
G|-9----9----11---9----9----7----7----9----|-9----11---11---9----9----7----7---------|
D|-9----9----9----7----7----5----5----7----|-7----9----9----7----7----5----5---------|
A|-7----7----------------------------------|------------------------------------3----|
E|-----------------------------------------|-----------------------------------------|

E|-----------------------------------------|-----------------------------------------|
B|-----------------------------------------|-----------------------------------------|
G|-----------------------------------------|-----------------------------------------|
D|-----------5---------4---------5---------|-4---------5---------4---------5---------|
A|-3----3---------3---------3---------3----|------3---------3---------3---------3----|
E|-----------------------------------------|-----------------------------------------|

E|-----------------------------------------|-----------------------------------------|
B|-----------------------------------------|-----------------------------------------|
G|-----------------------------------------|-----------------------------------------|
D|-----------5----5----4----4----5---------|-----------5----5----4----4----5---------|
A|-3----3-----------------------------3----|-3----3-----------------------------0----|
E|-----------------------------------------|-----------------------------------------|

E|-----------------------------------------|-----------------------------------------|
B|-----------------------------------------|-----------------------------------------|
G|-----------------------------------------|-----------------------------------------|
D|-----------4---------4---------5---------|-4---------5---------4----4----5---------|
A|-0----0---------0---------0---------0----|------0---------0------------------------|
E|-----------------------------------------|------------------------------------0----|

E|-----------------------------------------|-----------------------------------------|
B|-----------------------------------------|-----------------------------------------|
G|-----------------------------------------|------------------------------------9----|
D|-----------5----5----4----4----5----5----|-4----4----5----5----5----4----0----9----|
A|-----------------------------------------|------------------------------------5----|
E|-0----0----------------------------------|-----------------------------------------|

E|-----------------------------------------|-----------------------------------------|
B|-----------------------------------------|-----------------------------------------|
G|-9----9----11---9----9----7----7----9----|-9----11---11---9----9----7----7----9----|
D|-9----9----9----7----7----5----5----7----|-7----9----9----7----7----5----5----9----|
A|-5----7----------------------------------|------------------------------------7----|
E|-----------------------------------------|-----------------------------------------|

E|-----------------------------------------|-----------------------------------------|
B|-----------------------------------------|-----------------------------------------|
G|-9----9----11---9----9----7----7----9----|-9----11---11---9----9----7----7----9----|
D|-9----9----9----7----7----5----5----7----|-7----9----9----7----7----5----5----9----|
A|-7----7----------------------------------|------------------------------------7----|
E|-----------------------------------------|-----------------------------------------|

E|-----------------------------------------|-----------------------------------------|
B|-----------------------------------------|-----------------------------------------|
G|-9----9----11---9----9----7----7----9----|-9----11---11---9----9----7----7----9----|
D|-9----9----9----7----7----5----5----7----|-7----9----9----7----7----5----5----9----|
A|-7----7----------------------------------|------------------------------------7----|
E|-----------------------------------------|-----------------------------------------|

E|-----------------------------------------|-----------------------------------------|
B|-----------------------------------------|-----------------------------------------|
G|-9----9----11---9----9----7----7----9----|-9----11---11---9----9----7----7---------|
D|-9----9----9----7----7----5----5----7----|-7----9----9----7----7----5----5---------|
A|-7----7----------------------------------|------------------------------------3----|
E|-----------------------------------------|-----------------------------------------|

E|-----------------------------------------|-----------------------------------------|
B|-----------------------------------------|-----------------------------------------|
G|-----------------------------------------|-----------------------------------------|
D|-----------5---------4---------5---------|-4---------5---------4---------5---------|
A|-3----3---------3---------3---------3----|------3---------3---------3---------3----|
E|-----------------------------------------|-----------------------------------------|

E|-----------------------------------------|-----------------------------------------|
B|-----------------------------------------|-----------------------------------------|
G|-----------------------------------------|-----------------------------------------|
D|-----------5----5----4----4----5---------|-----------5----5----4----4----5---------|
A|-3----3-----------------------------3----|-3----3-----------------------------0----|
E|-----------------------------------------|-----------------------------------------|

E|-----------------------------------------|-----------------------------------------|
B|-----------------------------------------|-----------------------------------------|
G|-----------------------------------------|-----------------------------------------|
D|-----------4---------4---------5---------|-4---------5---------4----4----5---------|
A|-0----0---------0---------0---------0----|------0---------0------------------------|
E|-----------------------------------------|------------------------------------0----|

E|-----------------------------------------|-----------------------------------------|
B|-----------------------------------------|-----------------------------------------|
G|-----------------------------------------|------------------------------------9----|
D|-----------5----5----4----4----5----5----|-4----4----5----5----5----4----0----9----|
A|-----------------------------------------|------------------------------------5----|
E|-0----0----------------------------------|-----------------------------------------|

E|-----------------------------------------|-----------------------------------------|
B|-----------------------------------------|-----------------------------------------|
G|-%----10---9---------9---------%----10---|-%----10---9---------9---------%----10---|
D|-%--------------12--------10---%---------|-%--------------12--------10---%---------|
A|-----------------------------------------|-----------------------------------------|
E|-----------------------------------------|-----------------------------------------|

E|-----------------------------------------|-----------------------------------------|
B|-----------------------------------------|-----------------------------------------|
G|-%----10---9---------9---------%----10---|-%----10---9---------9---------%----10---|
D|-%--------------12--------10---%---------|-%--------------12--------10---%---------|
A|-----------------------------------------|-----------------------------------------|
E|-----------------------------------------|-----------------------------------------|

E|-----------------------------------------|-----------------------------------------|
B|-----------------------------------------|-----------------------------------------|
G|-%----10---9---------9---------%----10---|-%----10---9---------9---------%----10---|
D|-%--------------12--------10---%---------|-%--------------12--------10---%---------|
A|-----------------------------------------|-----------------------------------------|
E|-----------------------------------------|-----------------------------------------|

E|-----------------------------------------|-----------------------------------------|
B|-----------------------------------------|-----------------------------------------|
G|-%----10---9---------9---------%----10---|-%----10---9---------9---------%----15---|
D|-%--------------12--------10---%---------|-%--------------12--------10---%---------|
A|-----------------------------------------|-----------------------------------------|
E|-----------------------------------------|-----------------------------------------|

E|---------------------------------|-------------------------------------|---------------------------------|
B|---------------------------------|-------------------------------------|---------------------------------|
G|-%----15---14--------14-----15---|-%----15---------14--------%----15---|-%----15---14--------14-----15---|
D|-%--------------17---------------|-%----------17--------15---%---------|-%--------------17---------------|
A|---------------------------------|-------------------------------------|---------------------------------|
E|---------------------------------|-------------------------------------|---------------------------------|

E|-------------------------------------|-------------------------------------|-------------------------------------|
B|-------------------------------------|-------------------------------------|-------------------------------------|
G|-%----15---------14--------%----15---|-%----15---------14--------%----15---|-%----15---------14--------%----15---|
D|-%----------17--------15---%---------|-%----------17--------15---%---------|-%----------17--------15---%---------|
A|-------------------------------------|-------------------------------------|-------------------------------------|
E|-------------------------------------|-------------------------------------|-------------------------------------|

E|-----------------------------------------|-15---17---18---18---18--------------|-------------------------------------|
B|--------------------------15---17---18---|-------------------------------------|-------------------------------------|
G|-%----15---14---15---17------------------|---------------------------X----7----|-7-----7----7----7----7----7----7----|
D|-%---------------------------------------|---------------------------X----7----|-7-----7----7----7----7----7----7----|
A|-----------------------------------------|---------------------------X----5----|-5-----5----5----5----5----5----5----|
E|-----------------------------------------|-------------------------------------|-------------------------------------|

E|-----------------------------------------|-------------------------------------|-----------------------------------------|
B|-----------------------------------------|-------------------------------------|-----------------------------------------|
G|-7----7----7----7----7----7----7----7----|-7-----7----7----7----7----7----7----|-7----7----7----7----7----7----7----7----|
D|-7----7----7----7----7----7----7----7----|-7-----7----7----7----7----7----7----|-7----7----7----7----7----7----7----7----|
A|-5----5----5----5----5----5----5----5----|-5-----5----5----5----5----5----5----|-5----5----5----5----5----5----5----5----|
E|-----------------------------------------|-------------------------------------|-----------------------------------------|

E|---------------------------------|-------------------------------------|-------------------------------------|
B|---------------------------------|-------------------------------------|-------------------------------------|
G|---------------------------------|-------------------------------------|-----------7-----7----7----7----7----|
D|-5----4--------------------------|-5----4-------------------------5----|-5----4----7-----7----7----7----7----|
A|-----------7----5----5----7------|-----------7----5----5-----7---------|-----------5-----5----5----5----5----|
E|---------------------------------|-------------------------------------|-------------------------------------|

E|-----------------------------------------|-------------------------------------|-----------------------------------------|
B|-----------------------------------------|-------------------------------------|-----------------------------------------|
G|-7----7----7----7----7----%----7----7----|-7-----7----7----7----7----7----7----|-7----7----7----7----7----7----7----7----|
D|-7----7----7----7----7----%----7----7----|-7-----7----7----7----7----7----7----|-7----7----7----7----7----7----7----7----|
A|-5----5----5----5----5---------5----5----|-5-----5----5----5----5----5----5----|-5----5----5----5----5----5----5----5----|
E|-----------------------------------------|-------------------------------------|-----------------------------------------|

E|-------------------------------------|-----------------------------------------|---------------------------------|
B|-------------------------------------|-----------------------------------------|---------------------------------|
G|-7-----7----7----7----7----7----7----|-7----7----7----7----7----7----7----7----|---------------------------------|
D|-7-----7----7----7----7----7----7----|-7----7----7----7----7----7----7----7----|-5----4--------------------------|
A|-5-----5----5----5----5----5----5----|-5----5----5----5----5----5----5----5----|-----------7----5----5----7------|
E|-------------------------------------|-----------------------------------------|---------------------------------|

E|-------------------------------------|-------------------------------------|-----------------------------------------|
B|-------------------------------------|-------------------------------------|-----------------------------------------|
G|-------------------------------------|-----------7-----7----7----7----7----|-7----7----7----7----7----2----3----3----|
D|-5----4-------------------------5----|-5----4----7-----7----7----7----7----|-7----7----7----7----7----2----3----3----|
A|-----------7----5----5-----7---------|-----------5-----5----5----5----5----|-5----5----5----5----5----0----1----1----|
E|-------------------------------------|-------------------------------------|-----------------------------------------|

E|-------------------------------------|-----------------------------------------|-------------------------------------|
B|-------------------------------------|-----------------------------------------|-------------------------------------|
G|-3-----3----3----3----3----3----3----|-3----3----3----3----3----2----2----3----|-3-----3----3----3----3----3----3----|
D|-3-----3----3----3----3----3----3----|-3----3----3----3----3----2----2----3----|-3-----3----3----3----3----3----3----|
A|-1-----1----1----1----1----1----1----|-1----1----1----1----1----0----0----1----|-1-----1----1----1----1----1----1----|
E|-------------------------------------|-----------------------------------------|-------------------------------------|

E|-----------------------------------------|-------------------------------------|-------------------------------------|
B|-----------------------------------------|-------------------------------------|-------------------------------------|
G|-3----3----3----3----3----3----3----5----|-5-----5----5----5----5----5----5----|-5----5----5----5----5----5----5-----|
D|-3----3----3----3----3----3----3----5----|-5-----5----5----5----5----5----5----|-5----5----5----5----5----5----5-----|
A|-1----1----1----1----1----1----1----3----|-3-----3----3----3----3----3----3----|-3----3----3----3----3----3----3-----|
E|-----------------------------------------|-------------------------------------|-------------------------------------|

E|-------------------------------------|------------------------|-------------------------|
B|-------------------------------------|------------------------|-------------------------|
G|---------------------%---------5-----|-5----------------------|-7------7----7-----7-----|
D|-3----2----0---------%----0----5-----|-5----------------------|-7------7----7-----7-----|
A|----------------3---------5----3-----|-3------3----0----0-----|-5------5----5-----5-----|
E|-------------------------------------|------------------------|-------------------------|

E|---------|-------------------------|---------|-------------------------|---------|
B|---------|-------------------------|---------|-------------------------|---------|
G|-7-------|-5------5----5-----5-----|-5-------|-------------------------|---------|
D|-7-------|-5------5----5-----5-----|-5-------|-3------3----3-----3-----|-3-------|
A|-5-------|-3------3----3-----3-----|-3-------|-3------3----3-----3-----|-3-------|
E|---------|-------------------------|---------|-1------1----1-----1-----|-1-------|

E|-------------------------|---------|-------------------------|---------|-------------------------|
B|-------------------------|---------|-------------------------|---------|-------------------------|
G|-------------------------|---------|-7------7----7-----7-----|-7-------|-5------5----5-----5-----|
D|-5------5----5-----5-----|-5-------|-7------7----7-----7-----|-7-------|-5------5----5-----5-----|
A|-5------5----5-----5-----|-5-------|-5------5----5-----5-----|-5-------|-3------3----3-----3-----|
E|-3------3----3-----3-----|-3-------|-------------------------|---------|-------------------------|

E|---------|-------------------------|---------|-------------------------|---------|
B|---------|-------------------------|---------|-------------------------|---------|
G|-5-------|-------------------------|---------|-------------------------|---------|
D|-5-------|-3------3----3-----3-----|-3-------|-5------5----5-----5-----|-5-------|
A|-3-------|-3------3----3-----3-----|-3-------|-5------5----5-----5-----|-5-------|
E|---------|-1------1----1-----1-----|-1-------|-3------3----3-----3-----|-3-------|

E|-------------------------|---------|-------------------------|---------|-------------------------|
B|-------------------------|---------|-------------------------|---------|-------------------------|
G|-7------7----7-----7-----|-7-------|-5------5----5-----5-----|-5-------|-------------------------|
D|-7------7----7-----7-----|-7-------|-5------5----5-----5-----|-5-------|-3------3----3-----3-----|
A|-5------5----5-----5-----|-5-------|-3------3----3-----3-----|-3-------|-3------3----3-----3-----|
E|-------------------------|---------|-------------------------|---------|-1------1----1-----1-----|

E|---------|-------------------------|---------|-----------------------------------------|
B|---------|-------------------------|---------|-----------------------------------------|
G|---------|-------------------------|---------|-7----9----9----9----%----7----%----9----|
D|-3-------|-5------5----5-----5-----|-5-------|-7----9----7----7----%----7----%----7----|
A|-3-------|-5------5----5-----5-----|-5-------|-7---------7----7---------7---------7----|
E|-1-------|-3------3----3-----3-----|-3-------|-----------------------------------------|

E|-----------------------------------------|-----------------------------------------|
B|-----------------------------------------|-----------------------------------------|
G|-%----7----%----7----7----9----7----%----|-5----7----7----7----%----5----%----7----|
D|-%----7----%----7----7----9----7----%----|-5----7----5----5----%----5----%----5----|
A|------7---------7----7---------7---------|-5---------5----5---------5---------5----|
E|-----------------------------------------|-----------------------------------------|

E|-----------------------------------------|-----------------------------------------|
B|-----------------------------------------|-----------------------------------------|
G|-%----5----%----5----5----7----5----%----|-7----9----9----9----%----7----%----9----|
D|-%----5----%----5----5----7----5----%----|-7----9----7----7----%----7----%----7----|
A|------5---------5----5---------5---------|-7---------7----7---------7---------7----|
E|-----------------------------------------|-----------------------------------------|

E|-----------------------------------------|-------------------------------------|-------------------------------------|
B|-----------------------------------------|-------------------------------------|-------------------------------------|
G|-%----7----%----7----7----9----7----%----|-10---12---10---12---%----10---%-----|-12---14---12---14---%----12---%-----|
D|-%----7----%----7----7----9----7----%----|-10---12---10---10---%----10---%-----|-12---14---12---14---%----12---%-----|
A|------7---------7----7---------7---------|-10---10---10---10--------10---------|-12---12---12---12--------12---------|
E|-----------------------------------------|-------------------------------------|-------------------------------------|

E|-----------------------------------------|-----------------------------------------|
B|-----------------------------------------|-----------------------------------------|
G|-7----9----9----9----%----7----%----9----|-%----7----%----7----7----9----7----%----|
D|-7----9----7----7----%----7----%----7----|-%----7----%----7----7----9----7----%----|
A|-7---------7----7---------7---------7----|------7---------7----7---------7---------|
E|-----------------------------------------|-----------------------------------------|

E|-----------------------------------------|-----------------------------------------|
B|-----------------------------------------|-----------------------------------------|
G|-5----7----7----7----%----5----%----7----|-%----5----%----5----5----7----5----%----|
D|-5----7----5----5----%----5----%----5----|-%----5----%----5----5----7----5----%----|
A|-5---------5----5---------5---------5----|------5---------5----5---------5---------|
E|-----------------------------------------|-----------------------------------------|

E|-----------------------------------------|-----------------------------------------|
B|-----------------------------------------|-----------------------------------------|
G|-7----9----9----9----%----7----%----9----|-%----7----%----7----7----9----7----%----|
D|-7----9----7----7----%----7----%----7----|-%----7----%----7----7----9----7----%----|
A|-7---------7----7---------7---------7----|------7---------7----7---------7---------|
E|-----------------------------------------|-----------------------------------------|

E|-------------------------------------|-------------------------------------|-17---17---17---17--------17--------17---|
B|-------------------------------------|-------------------------------------|-----------------------------------------|
G|-10---12---10---12---%----10---%-----|-12---14---12---14---%----12---%-----|-14---14---14---14---%----14---%----14---|
D|-10---12---10---10---%----10---%-----|-12---14---12---14---%----12---%-----|---------------------%---------%---------|
A|-10---10---10---10--------10---------|-12---12---12---12--------12---------|-----------------------------------------|
E|-------------------------------------|-------------------------------------|-----------------------------------------|

E|------17--------17---17---17---17--------|-17---17---17---17--------17--------17---|
B|-----------------------------------------|-----------------------------------------|
G|-%----14---%----14---14---14---14---%----|-14---14---14---14---%----14---%----14---|
D|-%---------%------------------------%----|---------------------%---------%---------|
A|-----------------------------------------|-----------------------------------------|
E|-----------------------------------------|-----------------------------------------|

E|------17--------17---17---17---17--------|-17---17---17---17--------17--------17---|
B|-----------------------------------------|-----------------------------------------|
G|-%----14---%----14---14---14---14---%----|-14---14---14---14---%----14---%----14---|
D|-%---------%------------------------%----|---------------------%---------%---------|
A|-----------------------------------------|-----------------------------------------|
E|-----------------------------------------|-----------------------------------------|

E|------17--------17---17---17---17--------|-17---17---17---17--------17---------|-17---17---17---17--------17---------|
B|-----------------------------------------|-------------------------------------|-------------------------------------|
G|-%----14---%----14---14---14---14---%----|-14---14---14---14---%----14---%-----|-14---14---14---14---%----14---%-----|
D|-%---------%------------------------%----|---------------------%---------%-----|---------------------%---------%-----|
A|-----------------------------------------|-------------------------------------|-------------------------------------|
E|-----------------------------------------|-------------------------------------|-------------------------------------|

E|-----------------------------------------|-------------------------------------|--------------------------|
B|-----------------------------------------|-------------------------------------|--------------------------|
G|-12---14---12---10---10---12---10---9----|-9-----9---10---9--------------------|-7------7-----7-----7-----|
D|-----------------------------------------|---------------------11---12---12----|-7------7-----7-----7-----|
A|-----------------------------------------|-------------------------------------|-5------5-----5-----5-----|
E|-----------------------------------------|-------------------------------------|--------------------------|

E|-----------------------------------------------------------------|-------------------------|
B|-----------------------------------------------------------------|-------------------------|
G|-0---2---0---2---0---2---0---2---0---2---0---2---0---2---0---2---|-2-----0-----2-----2-----|
D|-----------------------------------------------------------------|-------------------------|
A|-----------------------------------------------------------------|-------------------------|
E|-----------------------------------------------------------------|-------------------------|

E|-------------------------------------|-----------------------------|-13----13---12---10------------------------|
B|---------------------14---10---------|--------11---11---10---------|----------------------13----13---11---10---|
G|------10---12---10-------------12----|-12--------------------12----|-------------------------------------------|
D|-12----------------------------------|-----------------------------|-------------------------------------------|
A|-------------------------------------|-----------------------------|-------------------------------------------|
E|-------------------------------------|-----------------------------|-------------------------------------------|

E|--------------------------------------------|----------------------|-----------------------------------------|
B|--------------------------------------------|----------------------|--------------------------8----11---9----|
G|-12----12---10---9--------------------------|----------------------|-----------7----9----10------------------|
D|----------------------12----10--12--10--8---|-10---10--8---7-------|------8----------------------------------|
A|--------------------------------------------|----------------------|-10--------------------------------------|
E|--------------------------------------------|----------------------|-----------------------------------------|

E|------------------------------------|-----------------------------------------------|
B|-10----8----10---6----8-------------|-----------------------------------------------|
G|----------------------------7---9---|-10--9---7---5-------5-------------------------|
D|------------------------------------|-----------------7---------7---5-----5----3----|
A|------------------------------------|-----------------------------------------------|
E|------------------------------------|-----------------------------------------------|

E|-------10---------------|---------|-------------------------|---------|---------|
B|------------------------|---------|-13----13----13-----13---|-13------|-13------|
G|-----------7-----7------|-7-------|-12----12----12-----12---|-12------|-12------|
D|-0---------0-----0------|-0-------|-------------------------|---------|---------|
A|------------------------|---------|-------------------------|---------|---------|
E|------------------------|---------|-------------------------|---------|---------|
Iron Maiden - Heaven Can Wait
Iron Maiden - Heaven Can Wait.gp3