Iron Maiden - Holy Smoke

Iron Maiden - Holy Smoke

Iron Maiden



Title: Holy Smoke
Album: 
Artist: 
Author: Iron Maiden

Track 1: Guitar 1
E|-------------------------------------|---------------------------------|-------------------------------------|
B|-------------------------------------|---------------------------------|-------------------------------------|
G|-------------------------------------|---------------------------------|-------------------------------------|
D|------6----7----6----9-----6----7----|-7----6----9----6----7-----9-----|-------------------------------------|
A|-7-----------------------------------|---------------------------------|------6----7----6----9-----6----7----|
E|-------------------------------------|---------------------------------|-7-----------------------------------|

E|---------------------------------|-------------------------------------|-------------------------------------|
B|---------------------------------|-------------------------------------|-------------------------------------|
G|---------------------------------|-------------------------------------|-------------------------------------|
D|---------------------------------|------4----5----4----7-----4----5----|-5-----------------------------------|
A|-7----6----9----6----7-----9-----|-5-----------------------------------|------4----5----4----7-----4----7----|
E|---------------------------------|-------------------------------------|-------------------------------------|

E|-----------------------------------------|-----------------------------------------|
B|-----------------------------------------|-----------------------------------------|
G|---------------------4-------------------|-4-------------------4-------------------|
D|------6----7----6---------6----7----6----|------6----7----6---------7----6---------|
A|-7---------------------------------------|------------------------------------7----|
E|-----------------------------------------|-----------------------------------------|

E|-----------------------------------------|-----------------------------------------|
B|-----------------------------------------|-----------------------------------------|
G|---------------------4-------------------|-4-------------------4-------------------|
D|------6----7----6---------6----7----6----|------6----7----6---------7----6---------|
A|-7---------------------------------------|-----------------------------------------|
E|-----------------------------------------|------------------------------------7----|

E|-----------------------------------------|-----------------------------------------|
B|-----------------------------------------|-----------------------------------------|
G|-----------------------------------------|-----------------------------------------|
D|---------------------4-------------------|-4-------------------4-------------------|
A|------6----7----6---------6----7----6----|------6----7----6---------7----6----5----|
E|-7---------------------------------------|-----------------------------------------|

E|-----------------------------------------|-----------------------------------------|
B|-----------------------------------------|-----------------------------------------|
G|-----------------------------------------|-----------------------------------------|
D|------4----5----4----7----5----4---------|-----------------------------------------|
A|-5----------------------------------0----|-0----4----5----4----7----5----4----7----|
E|-----------------------------------------|-----------------------------------------|

E|-----------------------------------------|-----------------------------------------|
B|-----------------------------------------|-----------------------------------------|
G|---------------------4-------------------|-4-------------------4--------------9----|
D|------6----7----6---------6----7----6----|------6----7----6---------7----6----9----|
A|-7---------------------------------------|------------------------------------7----|
E|-----------------------------------------|-----------------------------------------|

E|-------------------|-------------------|-------------------|----------------------------|
B|-------------------|-------------------|-------------------|----------------------------|
G|-9-------9----7----|-7-------7---------|-------------------|-------------%---------9----|
D|-9-------9----7----|-7-------7----5----|-5-------5----7----|-7------5----%----5----9----|
A|-7-------7----5----|-5-------5----5----|-5-------5----7----|-7------5---------5----7----|
E|-------------------|--------------3----|-3-------3----5----|-5------3---------3---------|

E|-------------------|-------------------|-------------------|----------------------------|
B|-------------------|-------------------|-------------------|----------------------------|
G|-9-------9----7----|-7-------7---------|-------------------|-------------%---------9----|
D|-9-------9----7----|-7-------7----5----|-5-------5----7----|-7------5----%----5----9----|
A|-7-------7----5----|-5-------5----5----|-5-------5----7----|-7------5---------5----7----|
E|-------------------|--------------3----|-3-------3----5----|-5------3---------3---------|

E|-------------------|-------------------|-------------------|----------------------------|
B|-------------------|-------------------|-------------------|----------------------------|
G|-9-------9----7----|-7-------7---------|-------------------|-------------%---------9----|
D|-9-------9----7----|-7-------7----5----|-5-------5----7----|-7------5----%----5----9----|
A|-7-------7----5----|-5-------5----5----|-5-------5----7----|-7------5---------5----7----|
E|-------------------|--------------3----|-3-------3----5----|-5------3---------3---------|

E|-------------------|-------------------|-------------------|----------------------------|
B|-------------------|-------------------|-------------------|----------------------------|
G|-9-------9----7----|-7-------7---------|-------------------|-------------%---------9----|
D|-9-------9----7----|-7-------7----5----|-5-------5----7----|-7------5----%----5----9----|
A|-7-------7----5----|-5-------5----5----|-5-------5----7----|-7------5---------5----7----|
E|-------------------|--------------3----|-3-------3----5----|-5------3---------3---------|

E|-------------------|-------------------|-------------------|----------------------------|
B|-------------------|-------------------|-------------------|----------------------------|
G|-9-------9---------|--------------7----|-7-------7---------|------------------%----9----|
D|-9-------9----5----|-5-------5----7----|-7-------7----7----|-7------5----5----%----9----|
A|-7-------7----5----|-5-------5----5----|-5-------5----7----|-7------5----5---------7----|
E|--------------3----|-3-------3---------|--------------5----|-5------3----3--------------|

E|-------------------|-------------------|-------------------|----------------------------|
B|-------------------|-------------------|-------------------|----------------------------|
G|-9-------9---------|--------------7----|-7-------7---------|------------------%---------|
D|-9-------9----5----|-5-------5----7----|-7-------7----7----|-7------5----5----%----2----|
A|-7-------7----5----|-5-------5----5----|-5-------5----7----|-7------5----5--------------|
E|--------------3----|-3-------3---------|--------------5----|-5------3----3--------------|

E|-------------------------------------|-------------------------------------|-------------------------------------|
B|-------------------------------------|-------------------------------------|-------------------------------------|
G|-%-----------------------------------|-%-----------------------------------|-%-----------------------------------|
D|-%----2----0---------0----------2----|-%----2----0---------0----------2----|-%----2----0---------0----------2----|
A|----------------2----------2---------|----------------2----------2---------|----------------2----------2---------|
E|-------------------------------------|-------------------------------------|-------------------------------------|

E|-----------------------------------------|-------------------------------------|-------------------------------------|
B|-----------------------------------------|-------------------------------------|-------------------------------------|
G|-%---------------------------------------|-%-----------------------------------|-%-----------------------------------|
D|-%----2----0---------0----5----4----2----|-%----2----0---------0----------2----|-%----2----0---------0----------2----|
A|----------------2------------------------|----------------2----------2---------|----------------2----------2---------|
E|-----------------------------------------|-------------------------------------|-------------------------------------|

E|-------------------------------------|-----------------------------------------|-------------------|
B|-------------------------------------|-----------------------------------------|-------------------|
G|-%-----------------------------------|-%----------------------------------9----|-9-------9----7----|
D|-%----2----0---------0----------2----|-%----2----0---------0----5----4----9----|-9-------9----7----|
A|----------------2----------2---------|----------------2-------------------7----|-7-------7----5----|
E|-------------------------------------|-----------------------------------------|-------------------|

E|-------------------|-------------------|----------------------------|-------------------|
B|-------------------|-------------------|----------------------------|-------------------|
G|-7-------7---------|-------------------|-------------%---------9----|-9-------9----7----|
D|-7-------7----5----|-5-------5----7----|-7------5----%----5----9----|-9-------9----7----|
A|-5-------5----5----|-5-------5----7----|-7------5---------5----7----|-7-------7----5----|
E|--------------3----|-3-------3----5----|-5------3---------3---------|-------------------|

E|-------------------|-------------------|----------------------------|-------------------|
B|-------------------|-------------------|----------------------------|-------------------|
G|-7-------7---------|-------------------|-------------%---------9----|-9-------9----7----|
D|-7-------7----5----|-5-------5----7----|-7------5----%----5----9----|-9-------9----7----|
A|-5-------5----5----|-5-------5----7----|-7------5---------5----7----|-7-------7----5----|
E|--------------3----|-3-------3----5----|-5------3---------3---------|-------------------|

E|-------------------|-------------------|----------------------------|-------------------|
B|-------------------|-------------------|----------------------------|-------------------|
G|-7-------7---------|-------------------|-------------%---------9----|-9-------9----7----|
D|-7-------7----5----|-5-------5----7----|-7------5----%----5----9----|-9-------9----7----|
A|-5-------5----5----|-5-------5----7----|-7------5---------5----7----|-7-------7----5----|
E|--------------3----|-3-------3----5----|-5------3---------3---------|-------------------|

E|-------------------|-------------------|----------------------------|-------------------|
B|-------------------|-------------------|----------------------------|-------------------|
G|-7-------7---------|-------------------|-------------%---------9----|-9-------9---------|
D|-7-------7----5----|-5-------5----7----|-7------5----%----5----9----|-9-------9----5----|
A|-5-------5----5----|-5-------5----7----|-7------5---------5----7----|-7-------7----5----|
E|--------------3----|-3-------3----5----|-5------3---------3---------|--------------3----|

E|-------------------|-------------------|----------------------------|-------------------|
B|-------------------|-------------------|----------------------------|-------------------|
G|--------------7----|-7-------7---------|------------------%----9----|-9-------9---------|
D|-5-------5----7----|-7-------7----7----|-7------5----5----%----9----|-9-------9----5----|
A|-5-------5----5----|-5-------5----7----|-7------5----5---------7----|-7-------7----5----|
E|-3-------3---------|--------------5----|-5------3----3--------------|--------------3----|

E|-------------------|-------------------|----------------------------|-------------------------------------|
B|-------------------|-------------------|----------------------------|-------------------------------------|
G|--------------7----|-7-------7---------|------------------%---------|-%-----------------------------------|
D|-5-------5----7----|-7-------7----7----|-7------5----5----%----2----|-%----2----0---------0----------2----|
A|-5-------5----5----|-5-------5----7----|-7------5----5--------------|----------------2----------2---------|
E|-3-------3---------|--------------5----|-5------3----3--------------|-------------------------------------|

E|-------------------------------------|-------------------------------------|-----------------------------------------|
B|-------------------------------------|-------------------------------------|-----------------------------------------|
G|-%-----------------------------------|-%-----------------------------------|-%---------------------------------------|
D|-%----2----0---------0----------2----|-%----2----0---------0----------2----|-%----2----0---------0----5----4----2----|
A|----------------2----------2---------|----------------2----------2---------|----------------2------------------------|
E|-------------------------------------|-------------------------------------|-----------------------------------------|

E|-------------------------------------|-------------------------------------|-------------------------------------|
B|-------------------------------------|-------------------------------------|-------------------------------------|
G|-%-----------------------------------|-%-----------------------------------|-%-----------------------------------|
D|-%----2----0---------0----------2----|-%----2----0---------0----------2----|-%----2----0---------0----------2----|
A|----------------2----------2---------|----------------2----------2---------|----------------2----------2---------|
E|-------------------------------------|-------------------------------------|-------------------------------------|

E|-----------------------------------------|-------------------------------------|---------------------------------|
B|-----------------------------------------|-------------------------------------|---------------------------------|
G|-%---------------------------------------|-------------------------------------|---------------------------------|
D|-%----2----0---------0----5----4----2----|-2----6----7----6----9-----6----7----|-7----6----9----6----7-----9-----|
A|----------------2------------------------|-------------------------------------|---------------------------------|
E|-----------------------------------------|-------------------------------------|---------------------------------|

E|-------------------------------------|-------------------------------------|-------------------------------------|
B|-------------------------------------|-------------------------------------|-------------------------------------|
G|-------------------------------------|-------------------------------------|-------------------------------------|
D|-------------------------------------|-------------------------------------|------4----5----4----7-----4---------|
A|------6----7----6----9-----6----7----|-7----6----9----6----7-----9----5----|-5------------------------------0----|
E|-7-----------------------------------|-------------------------------------|-------------------------------------|

E|-------------------------------------|-----------------------------------------|-----------------------------------------|
B|-------------------------------------|-----------------------------------------|-----------------------------------------|
G|-------------------------------------|-----------------------------------------|-----------------------------------------|
D|-------------------------------------|------6----7----6----9----6----7----6----|-9----6----7----6----9----7----6----2----|
A|-0----4----5----4----7-----4----7----|-7---------------------------------------|------------------------------------2----|
E|-------------------------------------|-----------------------------------------|------------------------------------0----|

E|-----------------------------------------|-----------------------------------------|
B|-----------------------------------------|-----------------------------------------|
G|-----------------------------------------|------------------------------------4----|
D|-2---------------------------------------|------------------------------------4----|
A|-2----2----2----2----2----2----2----2----|-2----2----2----2----2----2----2----2----|
E|-0----0----0----0----0----0----0----0----|-0----0----0----0----0----0----0---------|

E|-----------------------------------------|-----------------------------------------|
B|-----------------------------------------|-----------------------------------------|
G|-4---------------------------------------|------------------------------------7----|
D|-4----4----4----4----4----4----4----4----|-4----4----4----4----4----4----4----7----|
A|-2----2----2----2----2----2----2----2----|-2----2----2----2----2----2----2----5----|
E|-----------------------------------------|-----------------------------------------|

E|-----------------------------------------|-----------------------------------------|
B|-----------------------------------------|-----------------------------------------|
G|-7----------------------------------2----|-2----------------------------------4----|
D|-7----7----7----7----7----7----7----2----|-2----2----2----2----2----2----2----4----|
A|-5----5----5----5----5----5----5----0----|-0----0----0----0----0----0----0----2----|
E|-----------------------------------------|-----------------------------------------|

E|-----------------------------------------|-----------------------------------------|
B|-----------------------------------------|-----------------------------------------|
G|-4---------------------------------------|-----------------------------------------|
D|-4----4----4----4----4----4----4----4----|-4----4----4----4----4----4----4----2----|
A|-2----2----2----2----2----2----2----2----|-2----2----2----2----2----2----2----2----|
E|-----------------------------------------|------------------------------------0----|

E|-----------------------------------------|-----------------------------------------|
B|-----------------------------------------|-----------------------------------------|
G|-----------------------------------------|------------------------------------4----|
D|-2---------------------------------------|------------------------------------4----|
A|-2----2----2----2----2----2----2----2----|-2----2----2----2----2----2----2----2----|
E|-0----0----0----0----0----0----0----0----|-0----0----0----0----0----0----0---------|

E|-----------------------------------------|-----------------------------------------|
B|-----------------------------------------|-----------------------------------------|
G|-4---------------------------------------|------------------------------------7----|
D|-4----4----4----4----4----4----4----4----|-4----4----4----4----4----4----4----7----|
A|-2----2----2----2----2----2----2----2----|-2----2----2----2----2----2----2----5----|
E|-----------------------------------------|-----------------------------------------|

E|-----------------------------------------|-----------------------------------------|
B|-----------------------------------------|-----------------------------------------|
G|-7----------------------------------2----|-2----------------------------------4----|
D|-7----7----7----7----7----7----7----2----|-2----2----2----2----2----2----2----4----|
A|-5----5----5----5----5----5----5----0----|-0----0----0----0----0----0----0----2----|
E|-----------------------------------------|-----------------------------------------|

E|-----------------------------------------|-----------------------------------------|
B|-----------------------------------------|------------------------------------14---|
G|-4---------------------------------------|------------------------------------14---|
D|-4----4----4----4----4----4----4----4----|-4----4----4----4----4----4----4---------|
A|-2----2----2----2----2----2----2----2----|-2----2----2----2----2----2----2---------|
E|-----------------------------------------|-----------------------------------------|

E|--------------------------14---------------|-----14--------------14--------------14--------------14----------|
B|-14-------------------14------17--14-------|-14------17--14----------17--14----------17--14----------17--14--|
G|-14--------------16-------------------16---|-----------------16--------------16--------------16--------------|
D|-------16---14-----------------------------|-----------------------------------------------------------------|
A|-------------------------------------------|-----------------------------------------------------------------|
E|-------------------------------------------|-----------------------------------------------------------------|

E|-----14--------------14------------------------------|--------------17----17-----|
B|---------17--14----------17--14-----------------17---|-17---17--14---------------|
G|-16--------------16--------------%----16----14-------|---------------------------|
D|---------------------------------%-------------------|---------------------------|
A|-----------------------------------------------------|---------------------------|
E|-----------------------------------------------------|---------------------------|

E|---------|----------------------------|----------------------|-------------------------------------|
B|-17------|-17--------14---------------|----------------------|-------------------------------------|
G|-16------|-16---14-------------14-----|-%----4-------4---2---|---------------------2---4----4------|
D|---------|----------------16----------|-%--------------------|-4---2-------2---4-------------------|
A|---------|----------------------------|----------------------|---------4---------------------------|
E|---------|----------------------------|----------------------|-------------------------------------|

E|------------------------------------------------|------------------------------------|
B|-----------10--------9---------10---9---10--9---|------9-----------------------------|
G|-4----11--------11--------11--------------------|-11--------10--11-------------------|
D|------------------------------------------------|-------------------9-----7---9------|
A|------------------------------------------------|------------------------------------|
E|------------------------------------------------|------------------------------------|

E|----------------------------------------------12---|-12---------12----------|-----------------------------------------------------------------|
B|-------------------------------10---12---12--------|------12---------12-----|-19--14--17--19--14--17--19--14--17--19--14--17--19--14--17--19--|
G|---------------------9----11-----------------------|------------------------|-----------------------------------------------------------------|
D|-9---------7----11---------------------------------|------------------------|-----------------------------------------------------------------|
A|------9--------------------------------------------|------------------------|-----------------------------------------------------------------|
E|---------------------------------------------------|------------------------|-----------------------------------------------------------------|

E|---------------------------------------------------17--|-14--17--14-------14--------14------------------------|
B|-14--17--19--14--17--19--14--17--19--14--17--14--------|-------------17--------17-------17--14--17--14--------|
G|-------------------------------------------------------|-------------------------------------------------16---|
D|-------------------------------------------------------|------------------------------------------------------|
A|-------------------------------------------------------|------------------------------------------------------|
E|-------------------------------------------------------|------------------------------------------------------|

E|-----------------------17---19---|-19------19---17---|-19------|------------------------|
B|---------------------------------|-------------------|---------|------------------------|
G|-16---14--------14---------------|-------------------|---------|-%------%-----%----7----|
D|-----------16--------------------|-------------------|---------|-%------%-----%----7----|
A|---------------------------------|-------------------|---------|-------------------5----|
E|---------------------------------|-------------------|---------|------------------------|

E|-------------------|-------------------|----------------------------|-------------------|
B|-------------------|-------------------|----------------------------|-------------------|
G|-7-------7---------|--------------2----|-2-----------%---------9----|-9-------9----7----|
D|-7-------7----5----|-5-------5----2----|-2------5----%----5----9----|-9-------9----7----|
A|-5-------5----5----|-5-------5----0----|-0------5---------5----7----|-7-------7----5----|
E|--------------3----|-3-------3---------|--------3---------3---------|-------------------|

E|-------------------|-------------------|----------------------------|-------------------|
B|-------------------|-------------------|----------------------------|-------------------|
G|-7-------7---------|--------------2----|-2-----------%---------9----|-9-------9----7----|
D|-7-------7----5----|-5-------5----2----|-2------5----%----5----9----|-9-------9----7----|
A|-5-------5----5----|-5-------5----0----|-0------5---------5----7----|-7-------7----5----|
E|--------------3----|-3-------3---------|--------3---------3---------|-------------------|

E|-------------------|-------------------|----------------------------|-------------------|
B|-------------------|-------------------|----------------------------|-------------------|
G|-7-------7---------|--------------2----|-2-----------%---------9----|-9-------9----7----|
D|-7-------7----5----|-5-------5----2----|-2------5----%----5----9----|-9-------9----7----|
A|-5-------5----5----|-5-------5----0----|-0------5---------5----7----|-7-------7----5----|
E|--------------3----|-3-------3---------|--------3---------3---------|-------------------|

E|-------------------|-------------------|----------------------------|-------------------|
B|-------------------|-------------------|----------------------------|-------------------|
G|-7-------7---------|--------------2----|-2-----------%---------9----|-9-------9---------|
D|-7-------7----5----|-5-------5----2----|-2------5----%----5----9----|-9-------9----5----|
A|-5-------5----5----|-5-------5----0----|-0------5---------5----7----|-7-------7----5----|
E|--------------3----|-3-------3---------|--------3---------3---------|--------------3----|

E|-------------------|-------------------|----------------------------|-------------------|
B|-------------------|-------------------|----------------------------|-------------------|
G|--------------7----|-7-------7----2----|-2-----------%---------9----|-9-------9---------|
D|-5-------5----7----|-7-------7----2----|-2------5----%----5----9----|-9-------9----5----|
A|-5-------5----5----|-5-------5----0----|-0------5---------5----7----|-7-------7----5----|
E|-3-------3---------|-------------------|--------3---------3---------|--------------3----|

E|-------------------|-------------------|----------------------------|-------------------------------------|
B|-------------------|-------------------|----------------------------|-------------------------------------|
G|--------------7----|-7-------7----2----|-2-----------%--------------|-%-----------------------------------|
D|-5-------5----7----|-7-------7----2----|-2------5----%----5----2----|-%----2----0---------0----------2----|
A|-5-------5----5----|-5-------5----0----|-0------5---------5---------|----------------2----------2---------|
E|-3-------3---------|-------------------|--------3---------3---------|-------------------------------------|

E|-------------------------------------|-------------------------------------|-----------------------------------------|
B|-------------------------------------|-------------------------------------|-----------------------------------------|
G|-%-----------------------------------|-%-----------------------------------|-%---------------------------------------|
D|-%----2----0---------0----------2----|-%----2----0---------0----------2----|-%----2----0---------0----5----4----2----|
A|----------------2----------2---------|----------------2----------2---------|----------------2------------------------|
E|-------------------------------------|-------------------------------------|-----------------------------------------|

E|-------------------------------------|-------------------------------------|-------------------------------------|
B|-------------------------------------|-------------------------------------|-------------------------------------|
G|-%-----------------------------------|-%-----------------------------------|-%-----------------------------------|
D|-%----2----0---------0----------2----|-%----2----0---------0----------2----|-%----2----0---------0----------2----|
A|----------------2----------2---------|----------------2----------2---------|----------------2----------2---------|
E|-------------------------------------|-------------------------------------|-------------------------------------|

E|-----------------------------------------|------------------------|
B|-----------------------------------------|------------------------|
G|-%---------------------------------------|------%------%-----%----|
D|-%----2----0---------0----5----4----2----|-2----%------%-----%----|
A|----------------2---------5----4----2----|-2----------------------|
E|--------------------------3----2----0----|-0----------------------|
Iron Maiden - Holy Smoke
Iron Maiden - Holy Smoke.gp3