Iron Maiden - Holy Smoke (2)

Iron Maiden



Title: Holy Smoke
Album: No Prayer For the Dying
Artist: Iron Maiden
Author: Bruce Dickinson & Steve Harris

Track 1: Janick solo
E|---------|---------|---------|---------|---------|---------|---------|---------|---------|
B|---------|---------|---------|---------|---------|---------|---------|---------|---------|
G|-%-------|-%-------|-%-------|-%-------|-%-------|-%-------|-%-------|-%-------|-%-------|
D|-%-------|-%-------|-%-------|-%-------|-%-------|-%-------|-%-------|-%-------|-%-------|
A|---------|---------|---------|---------|---------|---------|---------|---------|---------|
E|---------|---------|---------|---------|---------|---------|---------|---------|---------|

E|---------|---------|---------|---------|---------|---------|---------|---------|---------|
B|---------|---------|---------|---------|---------|---------|---------|---------|---------|
G|-%-------|-%-------|-%-------|-%-------|-%-------|-%-------|-%-------|-%-------|-%-------|
D|-%-------|-%-------|-%-------|-%-------|-%-------|-%-------|-%-------|-%-------|-%-------|
A|---------|---------|---------|---------|---------|---------|---------|---------|---------|
E|---------|---------|---------|---------|---------|---------|---------|---------|---------|

E|---------|---------|---------|---------|---------|---------|---------|---------|---------|
B|---------|---------|---------|---------|---------|---------|---------|---------|---------|
G|-%-------|-%-------|-%-------|-%-------|-%-------|-%-------|-%-------|-%-------|-%-------|
D|-%-------|-%-------|-%-------|-%-------|-%-------|-%-------|-%-------|-%-------|-%-------|
A|---------|---------|---------|---------|---------|---------|---------|---------|---------|
E|---------|---------|---------|---------|---------|---------|---------|---------|---------|

E|---------|---------|---------|---------|---------|---------|---------|---------|---------|
B|---------|---------|---------|---------|---------|---------|---------|---------|---------|
G|-%-------|-%-------|-%-------|-%-------|-%-------|-%-------|-%-------|-%-------|-%-------|
D|-%-------|-%-------|-%-------|-%-------|-%-------|-%-------|-%-------|-%-------|-%-------|
A|---------|---------|---------|---------|---------|---------|---------|---------|---------|
E|---------|---------|---------|---------|---------|---------|---------|---------|---------|

E|---------|---------|---------|---------|---------|---------|---------|---------|---------|
B|---------|---------|---------|---------|---------|---------|---------|---------|---------|
G|-%-------|-%-------|-%-------|-%-------|-%-------|-%-------|-%-------|-%-------|-%-------|
D|-%-------|-%-------|-%-------|-%-------|-%-------|-%-------|-%-------|-%-------|-%-------|
A|---------|---------|---------|---------|---------|---------|---------|---------|---------|
E|---------|---------|---------|---------|---------|---------|---------|---------|---------|

E|---------|---------|---------|---------|---------|---------|---------|---------|---------|
B|---------|---------|---------|---------|---------|---------|---------|---------|---------|
G|-%-------|-%-------|-%-------|-%-------|-%-------|-%-------|-%-------|-%-------|-%-------|
D|-%-------|-%-------|-%-------|-%-------|-%-------|-%-------|-%-------|-%-------|-%-------|
A|---------|---------|---------|---------|---------|---------|---------|---------|---------|
E|---------|---------|---------|---------|---------|---------|---------|---------|---------|

E|---------|---------|---------|---------|---------|---------|---------|---------|---------|
B|---------|---------|---------|---------|---------|---------|---------|---------|---------|
G|-%-------|-%-------|-%-------|-%-------|-%-------|-%-------|-%-------|-%-------|-%-------|
D|-%-------|-%-------|-%-------|-%-------|-%-------|-%-------|-%-------|-%-------|-%-------|
A|---------|---------|---------|---------|---------|---------|---------|---------|---------|
E|---------|---------|---------|---------|---------|---------|---------|---------|---------|

E|---------|---------|---------|---------|---------|---------|---------|---------|---------|
B|---------|---------|---------|---------|---------|---------|---------|---------|---------|
G|-%-------|-%-------|-%-------|-%-------|-%-------|-%-------|-%-------|-%-------|-%-------|
D|-%-------|-%-------|-%-------|-%-------|-%-------|-%-------|-%-------|-%-------|-%-------|
A|---------|---------|---------|---------|---------|---------|---------|---------|---------|
E|---------|---------|---------|---------|---------|---------|---------|---------|---------|

E|---------|---------|---------|---------|---------|---------|---------|---------|---------|
B|---------|---------|---------|---------|---------|---------|---------|---------|---------|
G|-%-------|-%-------|-%-------|-%-------|-%-------|-%-------|-%-------|-%-------|-%-------|
D|-%-------|-%-------|-%-------|-%-------|-%-------|-%-------|-%-------|-%-------|-%-------|
A|---------|---------|---------|---------|---------|---------|---------|---------|---------|
E|---------|---------|---------|---------|---------|---------|---------|---------|---------|

E|---------|---------|---------|---------|---------|---------|------------------------|
B|---------|---------|---------|---------|---------|---------|------------------------|
G|-%-------|-%-------|-%-------|-%-------|-%-------|-%-------|-%------%-----%---------|
D|-%-------|-%-------|-%-------|-%-------|-%-------|-%-------|-%------%-----%----2----|
A|---------|---------|---------|---------|---------|---------|-------------------2----|
E|---------|---------|---------|---------|---------|---------|-------------------0----|

E|-------7---5---3---0-----------------------------------|-------------------------------------|
B|-----------------------8---5---3---0-------------------|-------------------------0----0------|
G|---------------------------------------7---4---2---0---|-------------------------0----0------|
D|-2-----------------------------------------------------|-2---0---2---0---2---0---0----0------|
A|-2-----------------------------------------------------|-------------------------------------|
E|-0-----------------------------------------------------|-------------------------------------|

E|-----------------------------------------------------------------|--------------------------------------------------------------|
B|-----------------------------------------------------------------|--------------------------------------------------------------|
G|-9---7---9---7---------------------------------------------------|---------------------------------7---5---7---5-----------7----|
D|-----------------9---7---9---7-----------------------------------|-----------------7---5---7---5-------------------7---5--------|
A|---------------------------------9---7---9---7-------------------|-7---5---7---5------------------------------------------------|
E|-------------------------------------------------7---5---7---5---|--------------------------------------------------------------|

E|---------------------|----------------------|---------------|---------|-17----17----17---17---17----|
B|---------------------|----------------------|---------------|---------|-----------------------------|
G|-7------7------7-----|-7-------5---7---5----|-2------4------|-4-------|-----------------------------|
D|---------------------|----------------------|---------------|---------|-----------------------------|
A|---------------------|----------------------|---------------|---------|-----------------------------|
E|---------------------|----------------------|---------------|---------|-----------------------------|

E|-17---17---17---17----------|--------------------------------------------------------------|
B|-----------------------0----|-0----10--0---12--10--7---5---10--7---5---0---7---5---4---0---|
G|----------------------------|--------------------------------------------------------------|
D|----------------------------|--------------------------------------------------------------|
A|----------------------------|--------------------------------------------------------------|
E|----------------------------|--------------------------------------------------------------|

E|---------------------------------------------|---------------------------------------------------|
B|-4---0---5---0---7---0---8---0---0----10-----|-10---8---10--8---7----8----8----------------------|
G|---------------------------------------------|---------------------------------9----7----7---9---|
D|---------------------------------------------|---------------------------------------------------|
A|---------------------------------------------|---------------------------------------------------|
E|---------------------------------------------|---------------------------------------------------|

E|---------------|---------------|---------------|---------|---------|---------|---------|
B|---------15----|-15----15------|-15----15------|-15------|---------|---------|---------|
G|-9-------------|---------------|---------------|---------|-%-------|-%-------|-%-------|
D|---------------|---------------|---------------|---------|-%-------|-%-------|-%-------|
A|---------------|---------------|---------------|---------|---------|---------|---------|
E|---------------|---------------|---------------|---------|---------|---------|---------|

E|---------|---------|---------|---------|---------|---------|---------|---------|---------|
B|---------|---------|---------|---------|---------|---------|---------|---------|---------|
G|-%-------|-%-------|-%-------|-%-------|-%-------|-%-------|-%-------|-%-------|-%-------|
D|-%-------|-%-------|-%-------|-%-------|-%-------|-%-------|-%-------|-%-------|-%-------|
A|---------|---------|---------|---------|---------|---------|---------|---------|---------|
E|---------|---------|---------|---------|---------|---------|---------|---------|---------|

E|---------|---------|---------|---------|---------|---------|---------|---------|---------|
B|---------|---------|---------|---------|---------|---------|---------|---------|---------|
G|-%-------|-%-------|-%-------|-%-------|-%-------|-%-------|-%-------|-%-------|-%-------|
D|-%-------|-%-------|-%-------|-%-------|-%-------|-%-------|-%-------|-%-------|-%-------|
A|---------|---------|---------|---------|---------|---------|---------|---------|---------|
E|---------|---------|---------|---------|---------|---------|---------|---------|---------|

E|---------|---------|---------|---------|---------|---------|---------|---------|---------|
B|---------|---------|---------|---------|---------|---------|---------|---------|---------|
G|-%-------|-%-------|-%-------|-%-------|-%-------|-%-------|-%-------|-%-------|-%-------|
D|-%-------|-%-------|-%-------|-%-------|-%-------|-%-------|-%-------|-%-------|-%-------|
A|---------|---------|---------|---------|---------|---------|---------|---------|---------|
E|---------|---------|---------|---------|---------|---------|---------|---------|---------|

E|---------|---------|---------|---------|---------|---------|---------|---------|---------|
B|---------|---------|---------|---------|---------|---------|---------|---------|---------|
G|-%-------|-%-------|-%-------|-%-------|-%-------|-%-------|-%-------|-%-------|-%-------|
D|-%-------|-%-------|-%-------|-%-------|-%-------|-%-------|-%-------|-%-------|-%-------|
A|---------|---------|---------|---------|---------|---------|---------|---------|---------|
E|---------|---------|---------|---------|---------|---------|---------|---------|---------|

E|---------|---------|---------|---------|---------|---------|---------|---------|---------|
B|---------|---------|---------|---------|---------|---------|---------|---------|---------|
G|-%-------|-%-------|-%-------|-%-------|-%-------|-%-------|-%-------|-%-------|-%-------|
D|-%-------|-%-------|-%-------|-%-------|-%-------|-%-------|-%-------|-%-------|-%-------|
A|---------|---------|---------|---------|---------|---------|---------|---------|---------|
E|---------|---------|---------|---------|---------|---------|---------|---------|---------|

E|---------|---------|---------|---------|---------|---------|
B|---------|---------|---------|---------|---------|---------|
G|-%-------|-%-------|-%-------|-%-------|-%-------|-%-------|
D|-%-------|-%-------|-%-------|-%-------|-%-------|-%-------|
A|---------|---------|---------|---------|---------|---------|
E|---------|---------|---------|---------|---------|---------|
Iron Maiden - Holy Smoke (2)
Iron Maiden - Holy Smoke (2).gp3