Iron Maiden - I've Got The Fire (2)

Iron Maiden



Title: I've Got The Fire
Album: Somewhere In Time B-Side
Artist: Iron Maiden
Author: 

Track 1: Dist. Guitar 1
E|-----------------------------------------|-----------------------------------------|
B|-----------------------------------------|-----------------------------------------|
G|----------------3----3-------------------|------3---------5----3-------------------|
D|------3----5--------------5----3----5----|-5---------5--------------5----4----3----|
A|-5---------------------------------------|-----------------------------------------|
E|-----------------------------------------|-----------------------------------------|

E|-------------------------------------|------------------------|---------|-----------------------------------------|
B|-------------------------------------|------------------------|---------|-----------------------------------------|
G|---------------------X----3----3-----|-5-----5----------------|---------|----------------3----3-------------------|
D|---------------------X----3----3-----|-5-----5----5----5------|-5-------|------3----5--------------5----3----5----|
A|-5----4----3---------X----1----1-----|-3-----3----5----5------|-5-------|-5---------------------------------------|
E|----------------3--------------------|------------3----3------|-3-------|-----------------------------------------|

E|-----------------------------------------|-------------------------------------|------------------------|
B|-----------------------------------------|-------------------------------------|------------------------|
G|------3---------5----3-------------------|---------------------X----3----3-----|-5-----5----------------|
D|-5---------5--------------5----4----3----|---------------------X----3----3-----|-5-----5----5----5------|
A|-----------------------------------------|-5----4----3---------X----1----1-----|-3-----3----5----5------|
E|-----------------------------------------|----------------3--------------------|------------3----3------|

E|---------|-----------------------------------------|-----------------------------------------|
B|---------|-----------------------------------------|-----------------------------------------|
G|---------|-----------------------------------------|-----------------------------------------|
D|-5-------|--------------------------5----5---------|----------------5--------------5---------|
A|-5-------|--------------------------5----5---------|----------------5--------------5---------|
E|-3-------|-0----1----2----3----3----3----3----3----|-3----3----3----3----3----3----3----3----|

E|-----------------------------------------|--------------------------------------------------------|
B|-----------------------------------------|--------------------------------------------------------|
G|-----------------------------------------|--------------------------------------------------------|
D|--------------------------5--------------|-5--------------5--------------5----5-------------------|
A|--------------------------5--------------|-5--------------5--------------5----5-------------------|
E|-0----1----2----3----3----3----3----3----|-3----3----3----3----3----3----3----3----0----1----2----|

E|---------|---------|---------|---------|---------|---------|---------|---------|---------|
B|---------|---------|---------|---------|---------|---------|---------|---------|---------|
G|---------|---------|-3-------|-3-------|-5-------|-5-------|---------|---------|---------|
D|-5-------|-5-------|-3-------|-3-------|-5-------|-5-------|-5-------|-5-------|-5-------|
A|-5-------|-5-------|-1-------|-1-------|-3-------|-3-------|-5-------|-5-------|-5-------|
E|-3-------|-3-------|---------|---------|---------|---------|-3-------|-3-------|-3-------|

E|---------|---------|---------|---------|---------|---------|---------------------------------|
B|---------|---------|---------|---------|---------|---------|---------------------------------|
G|---------|-3-------|-3-------|-5-------|-5-------|---------|-5----3----3---------------------|
D|-5-------|-3-------|-3-------|-5-------|-5-------|-5-------|-----------------3----5----5-----|
A|-5-------|-1-------|-1-------|-3-------|-3-------|-5-------|---------------------------------|
E|-3-------|---------|---------|---------|---------|-3-------|---------------------------------|

E|---------|---------|---------|---------|---------|---------|---------------------------------|
B|---------|---------|---------|---------|---------|---------|---------------------------------|
G|---------|---------|-3-------|-3-------|-5-------|-5-------|-%----3----5-----3----5-----3----|
D|-5-------|-5-------|-3-------|-3-------|-5-------|-5-------|-%----3----5-----3----5-----3----|
A|-5-------|-5-------|-1-------|-1-------|-3-------|-3-------|---------------------------------|
E|-3-------|-3-------|---------|---------|---------|---------|---------------------------------|

E|----------------------------|-------------------------------------|-----------------------------------------|
B|----------------------------|-------------------------------------|-----------------------------------------|
G|-5------%-------------------|-3-------------------------3---------|-5----3----------------------------------|
D|-5------%---------3----5----|-------5----3----5----5---------5----|-----------5----4----3-------------------|
A|-------------5--------------|-------------------------------------|--------------------------5----4----3----|
E|----------------------------|-------------------------------------|-----------------------------------------|

E|-------------------------|---------|---------|-----------------------------------------|
B|-------------------------|---------|---------|-----------------------------------------|
G|------X----3------5------|---------|---------|----------------3----3-------------------|
D|------X----3------5------|-5-------|-5-------|------3----5--------------5----3----5----|
A|------X----1------3------|-5-------|-5-------|-5---------------------------------------|
E|-3-----------------------|-3-------|-3-------|-----------------------------------------|

E|-----------------------------------------|-------------------------------------|------------------------|
B|-----------------------------------------|-------------------------------------|------------------------|
G|------3---------5----3-------------------|---------------------X----3----3-----|-5-----5----------------|
D|-5---------5--------------5----4----3----|---------------------X----3----3-----|-5-----5----5----5------|
A|-----------------------------------------|-5----4----3---------X----1----1-----|-3-----3----5----5------|
E|-----------------------------------------|----------------3--------------------|------------3----3------|

E|-----------------------------|-------------------------------------------------------------|
B|-----------------------------|-------------------------------------------------------------|
G|------------------------0----|-0----3----0----0----4----0----0----5----0----0----6----0----|
D|-5-----5-----5-----5---------|-------------------------------------------------------------|
A|-5-----5-----5-----5---------|-------------------------------------------------------------|
E|-3-----3-----3-----3---------|-------------------------------------------------------------|

E|-------------------------------------------------------------|-------------------------------------------------------------|
B|-------------------------------------------------------------|-------------------------------------------------------------|
G|-0----7----0----0----8----0----0----9----0----0----10---0----|-0----11---0----0----12---0----0----13---0----14---0----15---|
D|-------------------------------------------------------------|-------------------------------------------------------------|
A|-------------------------------------------------------------|-------------------------------------------------------------|
E|-------------------------------------------------------------|-------------------------------------------------------------|

E|-----------------------18--15--18--|-15--18--15------15--18--15--18--15--18--15------15--18--15--18--|
B|-------------------18--------------|-------------18------------------------------18------------------|
G|-15----15----15--------------------|-----------------------------------------------------------------|
D|-----------------------------------|-----------------------------------------------------------------|
A|-----------------------------------|-----------------------------------------------------------------|
E|-----------------------------------|-----------------------------------------------------------------|

E|-15--18--15------15--18--15--18--15--18--15------15--18--15--18--|-15------|-15------|
B|-------------18------------------------------18------------------|-15------|-15------|
G|-----------------------------------------------------------------|---------|---------|
D|-----------------------------------------------------------------|---------|---------|
A|-----------------------------------------------------------------|---------|---------|
E|-----------------------------------------------------------------|---------|---------|

E|-----------------------------|-----------------------------|-------------------------------------|
B|-----------------------------|-----------------------------|-------------------------------------|
G|-5-----5-----5-----3---------|-----------------------------|-3----5----5-----5----3---------3----|
D|-5-----5-----5----------5----|-5-----5-----5-----3----5----|---------------------------5---------|
A|-----------------------------|-----------------------------|-------------------------------------|
E|-----------------------------|-----------------------------|-------------------------------------|

E|---------------------------------|-------------------------------------------------------------|
B|---------------------------------|-------------------------------------------------------------|
G|-3----5----5-----5-----5----3----|-------------------------------------------------------------|
D|------5----5-----5---------------|-3----5----3-------------------3----5----3-------------------|
A|---------------------------------|----------------5----3----5-------------------5----3----5----|
E|---------------------------------|-------------------------------------------------------------|

E|--------------------------------------|-----------------------------------------|
B|--------------------------------------|-6--------------6--------------6---------|
G|-------------------------------3------|-7----7----7----7----7----7----7----7----|
D|-3----5----3-------------------3------|-----------------------------------------|
A|----------------5----3----5-----------|-----------------------------------------|
E|--------------------------------------|-----------------------------------------|

E|----------------------------|-----------15-------------15--------15---|-----------15-------------15--------15---|
B|-6--------------6----6------|------15-------------15-------------15---|------15-------------15-------------15---|
G|-7----7----7----7----7------|-17-------------17-------------17--------|-17-------------17-------------17--------|
D|----------------------------|-----------------------------------------|-----------------------------------------|
A|----------------------------|-----------------------------------------|-----------------------------------------|
E|----------------------------|-----------------------------------------|-----------------------------------------|

E|-------15----------------------------|----------------------------|---------------------------------------|
B|------------15---18---15-------------|----------------------------|-18----18--15-------18----18--15-------|
G|-17------------------------17---15---|-18---17---15--------15-----|---------------17-----------------17---|
D|-------------------------------------|----------------17----------|---------------------------------------|
A|-------------------------------------|----------------------------|---------------------------------------|
E|-------------------------------------|----------------------------|---------------------------------------|

E|--------------------18-----|-18----------------------------------|----------------------------|
B|-18----18--15--------------|-------------------------------------|----------------------------|
G|---------------17----------|------3----5-----3----5----5----3----|-5------%-------------------|
D|---------------------------|------3----5-----3----5----5----3----|-5------%---------3----5----|
A|---------------------------|-------------------------------------|-------------5--------------|
E|---------------------------|-------------------------------------|----------------------------|

E|-------------------------------------|-----------------------------------------|-------------------------|
B|-------------------------------------|-----------------------------------------|-------------------------|
G|-3-------------------------3---------|-5----3----------------------------------|------X----3------5------|
D|-------5----3----5----5---------5----|-----------5----4----3-------------------|------X----3------5------|
A|-------------------------------------|--------------------------5----4----3----|------X----1------3------|
E|-------------------------------------|-----------------------------------------|-3-----------------------|

E|---------|---------|-----------------------------------------|-----------------------------------------|
B|---------|---------|-----------------------------------------|-----------------------------------------|
G|---------|---------|-----------------------------------------|-----------------------------------------|
D|-5-------|-5-------|--------------------------5----5---------|----------------5--------------5---------|
A|-5-------|-5-------|--------------------------5----5---------|----------------5--------------5---------|
E|-3-------|-3-------|-0----1----2----3----3----3----3----3----|-3----3----3----3----3----3----3----3----|

E|-----------------------------------------|--------------------------------------------------------|
B|-----------------------------------------|--------------------------------------------------------|
G|-----------------------------------------|--------------------------------------------------------|
D|--------------------------5--------------|-5--------------5--------------5----5-------------------|
A|--------------------------5--------------|-5--------------5--------------5----5-------------------|
E|-0----1----2----3----3----3----3----3----|-3----3----3----3----3----3----3----3----0----1----2----|

E|---------|---------|---------|---------|---------|---------|---------|---------|---------|
B|---------|---------|---------|---------|---------|---------|---------|---------|---------|
G|---------|---------|-3-------|-3-------|-5-------|-5-------|---------|---------|---------|
D|-5-------|-5-------|-3-------|-3-------|-5-------|-5-------|-5-------|-5-------|-5-------|
A|-5-------|-5-------|-1-------|-1-------|-3-------|-3-------|-5-------|-5-------|-5-------|
E|-3-------|-3-------|---------|---------|---------|---------|-3-------|-3-------|-3-------|

E|---------|---------|---------|---------|---------|---------|---------------------------------|
B|---------|---------|---------|---------|---------|---------|---------------------------------|
G|---------|-3-------|-3-------|-5-------|-5-------|---------|-5----3----3---------------------|
D|-5-------|-3-------|-3-------|-5-------|-5-------|-5-------|-----------------3----5----5-----|
A|-5-------|-1-------|-1-------|-3-------|-3-------|-5-------|---------------------------------|
E|-3-------|---------|---------|---------|---------|-3-------|---------------------------------|

E|---------|---------|---------|---------|---------|---------|---------------------------------|
B|---------|---------|---------|---------|---------|---------|---------------------------------|
G|---------|---------|-3-------|-3-------|-5-------|-5-------|-%----3----5-----3----5-----3----|
D|-5-------|-5-------|-3-------|-3-------|-5-------|-5-------|-%----3----5-----3----5-----3----|
A|-5-------|-5-------|-1-------|-1-------|-3-------|-3-------|---------------------------------|
E|-3-------|-3-------|---------|---------|---------|---------|---------------------------------|

E|----------------------------|-------------------------------------|-----------------------------------------|
B|----------------------------|-------------------------------------|-----------------------------------------|
G|-5------%-------------------|-3-------------------------3---------|-5----3----------------------------------|
D|-5------%---------3----5----|-------5----3----5----5---------5----|-----------5----4----3-------------------|
A|-------------5--------------|-------------------------------------|--------------------------5----4----3----|
E|----------------------------|-------------------------------------|-----------------------------------------|

E|-------------------------|---------|---------|-----------------------------------------|
B|-------------------------|---------|---------|-----------------------------------------|
G|------X----3------5------|---------|---------|----------------3----3-------------------|
D|------X----3------5------|-5-------|-5-------|------3----5--------------5----3----5----|
A|------X----1------3------|-5-------|-5-------|-5---------------------------------------|
E|-3-----------------------|-3-------|-3-------|-----------------------------------------|

E|-----------------------------------------|-------------------------------------|--------------------|
B|-----------------------------------------|-------------------------------------|--------------------|
G|------3---------5----3-------------------|---------------------X----3----3-----|-5------------------|
D|-5---------5--------------5----4----3----|---------------------X----3----3-----|-5------5------5----|
A|-----------------------------------------|-5----4----3---------X----1----1-----|-3------5------5----|
E|-----------------------------------------|----------------3--------------------|--------3------3----|

E|---------|---------|---------|-------------------------|
B|---------|---------|---------|-------------------------|
G|---------|---------|---------|-------%-----%-----%-----|
D|-5-------|-5-------|-5-------|-5-----%-----%-----%-----|
A|-5-------|-5-------|-5-------|-5-----------------------|
E|-3-------|-3-------|-3-------|-3-----------------------|
Iron Maiden - I've Got The Fire (2)
Iron Maiden - I've Got The Fire (2).gp3